Sunteți pe pagina 1din 7

Intro:

e|--------------------------------------------------10-----------|
B|---8s10-10-10-10-10-8-8s10-10s12-12---8s10-10-10-8----88s10----|
G|-7---------------------------------7-------------------------7-|
D|---------------------------------------------------------------|
A|---------------------------------------------------------------|
E|---------------------------------------------------------------|

Chords used:
G
EbM7
|-----X-----|
|---6----|
|-----3-----|
|---8----|
|-----2-----|
|---7----|
|-----X-----|
|---8----|
|-----X-----|
|---6----|
|-----3-----|
|--------|
CM9
|-----3-----|
|-----3-----|
|-----4-----|
|-----5-----|
|-----3-----|
|-----------|

Em5
|----3-----|

|----X----|

|----3-----|

|----3----|

|----0-----|

|----0----|

|----2-----|

|----X----|

|----2-----|

|----3----|

|----0-----|

|----X----|

D5
|----5-----|
|----5-----|
|----5-----|
|----7-----|
|----5-----|
|----------|

Verse 1
G
Why is that sad look in your eyes
Why are you crying?
C9
Tell me now, tell me now
Tell me, why you're feelin' this way
G
I hate to see you so down, oh baby!
C9
Em5
Is it your heart
Oh, that's breakin' all in pieces
C9
Em5
Makin' you cry

C9

EbM7
Makin' you feel blue
Is there anything that I can do
CHORUS:
G
Why don't you tell me where it hurts now, baby
Em5
And I'll do my best to make it better
CM9
D5
Yes, I'll do my best to make the tears all go away
G
Just tell me where it hurts
Now, tell me
Em5
And I love you with a love so tender
CM9
Oh and if you let me stay
D5
I'll love all of the hurt away
Verse 2:
G
Where are all those tears coming from
Why are they falling?
C9
somebody, somebody, somebody leave your heart in the cold
G
You just need somebody to hold on, baby
C9
Em5
(Give me a chance)
To put back all the pieces
C9
Em5
Take hold of your heart
EbM7
Make it just like new
There's so many things that I can do
(Repeat chorus)
E|---------------------------------------------8s10-6-------|
B|----11s13-13-13-11---11s13--1313s15-1311-----------------|
G|-10---------------10-------------------------5s7--3-------|
D|----------------------------------------------------------|
A|----------------------------------------------------------|
E|----------------------------------------------------------|

E|-8s10--6----8-8-8-8-8--6----------------------------------|
B|----------------------------------------------------------|
G|-5s7---3----5-----------3----3s5-5-5-3---3s5--7-8-10------|
D|---------------------------3----------3-------------------|
A|----------------------------------------------------------|
E|----------------------------------------------------------|
C9
Em5
Is it your heart
Oh, that's breakin' all in pieces
C9
Em5
Makin' you cry
EbM7
Makin' you feel blue
Is there anything that I can do.......
CHORUS:
G
Why don't you tell me where it hurts now, baby
Em5
And I'll do my best to make it better
CM9
D5
Yes, I'll do my best to make the tears all go away
G
Just tell me where it hurts
Now, tell me
Em5
And I love you with a love so tender
CM9
Oh and if you let me stay
D5
I'll love all of the hurt away

G
D/F#
Em
C9
C9
D
E---3----------2--------2-----2-----3---3-----3---3--5------------|
B---3---3------3--T--3--3--3-----3--3---3--T--3---3--5------------|
G---2---2------0--A--0-----0--------5------A--5------5------------|
D-----------------P-----------------------P-----------------------|
A-----------------------------------3---------3------5------------|
E---3---2------0-----0----0---------------------------------------|
tell me...
Is there anything that i can
do baby

Outro:
e|--------------------------------------------------10-----------|
B|---8s10-10-10-10-10-8-8s10-10s12-12---8s10-10-10-8----88s10----|
G|-7---------------------------------7-------------------------7-|
D|---------------------------------------------------------------|
A|---------------------------------------------------------------|
E|---------------------------------------------------------------

INTRO:
C G Am F
e|-------------------------------------------------|
B|------3--5-6-8-8-6-5---8-8-6-5-------------------|
G|-----5---------------7---------5---5-7-9-7-5-5---| x2
D|----5----------------------------7---------------|
A|---3---------------------------------------------|
E|-------------------------------------------------|
VERSE1:
C
e|------3--------------|
B|-----3---------------|
G|----5----------------|
D|---5-----------------|
A|--3------------------|
E|---------------------|
I see you
G
e|-------3-------------|
B|------3--------------|
G|---------------------|
D|-----5---------------|
A|----5----------------|
E|---3-----------------|
beside me
Am
e|-----0---------------|
B|------1--------------|
G|----2----------------|
D|---2-----------------|
A|--0------------------|
E|---------------------|
It's only a dream
F
e|------1--------------|
B|-------1-------------|
G|---------------------|
D|----3----------------|

A|---3-----------------|
E|--1------------------|
A vision of what used to be
C
e|------3--------------|
B|-----3---------------|
G|----5----------------|
D|---5-----------------|
A|--3------------------|
E|---------------------|
The laughter
G
e|-------3-------------|
B|------3--------------|
G|---------------------|
D|-----5---------------|
A|----5----------------|
E|---3-----------------|
The sorrow
Am
e|-----0---------------|
B|------1--------------|
G|----2----------------|
D|---2-----------------|
A|--0------------------|
E|---------------------|
Pictures and time
F
e|------1--------------|
B|-------1-------------|
G|---------------------|
D|----3----------------|
A|---3-----------------|
E|--1------------------|
Fading to memories

REFRAIN1:
Em
e|-------0-------------|
B|--------0------------|
G|---------0-----------|
D|----2----------------|
A|---2-----------------|
E|--0------------------|
How could i
Am
e|-----0---------------|
B|------1--------------|
G|----2----------------|
D|---2-----------------|
A|--0------------------|
E|---------------------|
ever let you go
Em

e|-------0-------------|
B|--------0------------|
G|---------0-----------|
D|----2----------------|
A|---2-----------------|
E|--0------------------|
Is it too
F
e|------1--------------|
B|-------1-------------|
G|---------------------|
D|----3----------------|
A|---3-----------------|
E|--1------------------|
late to let you know
CHORUS:
C
e|-------0-------------|
B|--------1------------|
G|----0----0-----------|
D|---2-----------------|
A|--3------------------|
E|---------------------|
I tried to
G
e|-------3-------------|
B|--------0------------|
G|---------0-----------|
D|-----0---------------|
A|----2----------------|
E|---3-----------------|
run from your side
Am
e|-----0---------------|
B|------1--------------|
G|----2----------------|
D|---2-----------------|
A|--0------------------|
E|---------------------|
But each place I hide
F
e|------1--------------|
B|-------1-------------|
G|---------------------|
D|----3----------------|
A|---3-----------------|
E|--1------------------|
It only reminds me of you
C
e|-------0-------------|
B|--------1------------|
G|----0----0-----------|
D|---2-----------------|
A|--3------------------|
E|---------------------|

When I turn
G
e|-------3-------------|
B|--------0------------|
G|---------0-----------|
D|-----0---------------|
A|----2----------------|
E|---3-----------------|
out all the lights
Am
e|-----0---------------|
B|------1--------------|
G|----2----------------|
D|---2-----------------|
A|--0------------------|
E|---------------------|
Even the night
F
e|------1--------------|
B|-------1-------------|
G|---------------------|
D|----3----------------|
A|---3-----------------|
E|--1------------------|
It only reminds me of you
============================================================
VERSE2: [same as VERSE1]
I needed my freedom
This what Ive thought
But I was a fool to believe
My heart lied while you cried
Rivers of tears
But I was too blind to see
REFRAIN2: [same as REFRAIN1]
Everything weve been through before
Now it means so much more
[Repeat CHORUS]
[INTRO]
BRIDGE: [same as REFRAIN]
So come back to me
Im down on my knees
Boy cant you see
[Repeat REFRAIN2]
[Repeat CHORUS] x2
OUTRO: [same as INTRO]
============================================================
-AJ Albaniel

Can't play "Only Reminds Me Of You"? Improve your playing via


easy step-by-step video lessons!