Sunteți pe pagina 1din 3

Nando Reis - Sei

Tom: G
Intro:
1 parte:
Am7(9)
E|--------------5-5-5-0--0-----------------|
B|-------5-5/7--7-7-7-0--0-----------------|
G|-0-5-7-5-5/7--7-7-7-0--5-----------------|
D|-0-5-7-0-0----0-0-0-0--5-----------------|
A|-0-0-0-----------------0-----------------|
E|-----------------------------------------|

2 parte:
Am7(9)
E|--------------5-5-5-0---7----------------|
B|-------5-5/7--7-7-7-0---8----------------|
G|-0-5-7-5-5/7--7-7-7-0---9----------------|
D|-0-5-7-0-0----0-0-0-0--10----------------|
A|-0-0-0------------------0----------------|
E|-----------------------------------------|

3 parte:
Am7(9)
E|--------------5-5-5-0--0-0-0-0-0-0-0-----|
B|-------5-5/7--7-7-7-0--0-0-0-0-0-0-0-----|
G|-0-5-7-5-5/7--7-7-7-0--5-5-5-5-5-5-0-----|
D|-0-5-7-0-0----0-0-0-0--5-5-5-5-5-5-0-----|
A|-0-0-0-----------------0-0-0-0-0-0-0-----|
E|-----------------------------------------|

4 parte:
G
E|-3-3-3-3-3-3-3-3-------------------------|
B|-3-3-3-3-3-3-3-3-------------------------|
G|-0-0-0-0-0-0-0-0-------------------------|
D|-0-0-0-0-0-0-0-0-------------------------|
A|-2-2-2-2-2-2-2-2-------------------------|
E|-3-3-3-3-3-3-3-3-------------------------|

D

G
Sabe, quando a gente tem vontade de encontrar
D
A novidade de uma pessoa
G
Quando o tempo passa rpido

D
Quando voc est ao lado dessa pessoa
G
D/F#
Em
Quando d vontade de ficar nos braos dela
D
Em
A
E nunca mais sair
D

G
Sabe, quando a felicidade invade
D
Quando pensa na imagem da pessoa
G
Quando lembra que seus lbios encontraram
Bm
Outros lbios de uma pessoa
Em
E o beijo esperado ainda est molhado
A
G
E guardado ali em sua boca
A
Que se abre e sorri feliz
Bm
Quando fala o nome daquela pessoa
G
Quando quer beijar de novo e muito
D
Os lbios desejados da sua pessoa
G
D/F#
Em
Quando quer que acabe logo a viagem
D
Em
A
Que levou ela pra longe daqui
D

G
Sabe, quando passa a nuvem brasa

D
Abre o corpo, sopro do ar que traz essa pessoa
G
Quando quer ali deitar, se alimentar
Bm
E entregar seu corpo pra pessoa
Em
Quando pensa porque no disse a verdade
A
que eu queria que ela estivesse aqui
(repete intro)
D

G
Sabe, quando a felicidade invade
D
Quando pensa na imagem da pessoa
G
Quando lembra que seus lbios encontraram
Bm
Outros lbios de uma pessoa
Em
E o beijo esperado ainda est molhado
A
G
E guardado ali em sua boca
A

Que se abre e sorri feliz


Bm
Quando fala o nome daquela pessoa
G
Quando quer beijar de novo e muito
D
Os lbios desejados da sua pessoa
G
D/F#
Em
Quando pensa porque no disse a verdade
D
Em
A
que eu queria que ela estivesse aqui
G A
D
Sei eu sei
----------------- Acordes ----------------A = X 0 2 2 2 0
Am7(9) = X 0 5 5 0 0
Bm = X 2 4 4 3 2
D = X X 0 2 3 2
D/F# = 2 X 0 2 3 2
Em = 0 2 2 0 0 0
G = 3 2 0 0 3 3