Sunteți pe pagina 1din 2

Ce este o tabulatur?

Notaia pe baz de tabulaturi este o notaie muzical simplificat pentru chitara. n


acest tip de notaie, fiecrei corzi i corespunde o linie de tabulatura (E=mi, B=si,
G=sol, D=re, A=la, E=mi).
Exemplu:
E||-------||
B||-------||
G||-------||
D||-------||
A||-------||
E||-------||
Cea mai de sus linie corespunde cu coarda cea mai subtire de pe chitar. Fiecare not
de pe chitara corespunde unei cifre care indic poziia pe care trebuie apasat coarda.
"0" nseamna ciupirea liber a corzii.
Exemplu

E||--0----||
B||-------||
G||-------||
D||-------||
A||-------||
E||-------||
n exemplul de mai sus, este reprezentata coarda de jos ciupit liber (nota mi).
Numarul indicat de cifra este pozitia pe care trebuie apasata coarda pe griful chitarei.
Exemplu

E||--1----||
B||-------||
G||-------||
D||-------||
A||-------||
E||-------||
n exemplul de mai sus, este reprezentat coarda de jos apasat pe pozitia I (nota
"fa").
Cifrele care stau pe aceeai poziie vertical n tabulatur reprezint note care trebuie
cntate concomitent. n exemplul de mai jos, este reprezentat acordul Am (la minor).
Observati ca toate notele sunt una peste alta, ceea ce nseamna ca trebuie ciupite
simultan.
Am
E||--0----||
B||--1----||
G||--2----||
D||--2----||
A||--0----||
E||-------||

Tabulatura se citete i se interpreteaz de la stnga la dreapta, asemanator oricrui


text.
Exemplu

E||----------------------0----||
B||-----------------1---------||
G||------------2--------------||
D||-------2-------------------||
A||--0------------------------||
E||---------------------------||
Aceeai ca i mai sus, n ciupitur

E||----------------------|--0-------------------||
B||------------1---------|------------1---------||
G||-------2---------2----|-------2---------2----||
D||----------------------|----------------------||
A||--0-------------------|----------------------||
E||----------------------|----------------------||