Sunteți pe pagina 1din 5

Esta cancin es chida no s por qu no la sacaron pero

aqu lo tienen
dedicado para toda la gente en especial a mi pata
"Enzo"..
Que les sirva de algo...
Bueno este es el bajo de esta rola esta xido!!!
Chquenla!!!
Versos:
0:10
g|-----------------------------------------------|
D|-----------------------------------------------|
A|-------------3-3--5-5-7-8-8-------7-7-7-7-----|
E|--5-5--3-3------------------7-7------------7/--|
g|-----------------------------------------------|
D|-----------------------------------------------|
A|-------------3-3--5-5-7-8-8--------7-77-------|
E|--5-5--3-3------------------7-7------------7/--|
Coro:
0:31
g|-----------------------------------------------------|
D|-------------------------------------------75--------|
A|-------------3-3-3-5-5-7-8-8-8-------7-77-----87----|
E|--5-5--3-3--------------------7-7-7--------------7/--|
g|---------------------------------------------------|
D|---------------------------------------------------|
A|-------------3-3-3-5-5-7-8-8-8--------7-77-7------|
E|--5-5--3-3--------------------7-7-7------------7/--|
Verso 2:
0:51
g|------------------------------------------------|
D|------------------------------------------------|
A|-------------3-3--5-5-7-8-8-------7-75-7-7-----|

E|--5-5--3-3------------------7-7------------7/---|
g|------------------------------------------------|
D|------------------------------------------------|
A|-------------3-3--5-5-7-8-8--------7-77-7-7----|
E|--5-5--3-3------------------7-7-------------7/--|
Coro:
1:10
g|---------------------------------------------------|
D|----------------------------------------7-5--------|
A|-------------3-3--5-5-7-8-8-------7-77-----8-7----|
E|--5-5--3-3------------------7-7----------------7/--|
g|-------------------------------------------------|
D|-------------------------------------------------|
A|-------------3-3--5-5-7-8-8--------7-77-7-------|
E|--5-5--3-3------------------7-7-------------4p/--|

g|---------------------------------------------------------------------|
D|------------------------------------------------------------9-9-9999-|
A|--------------------------7-7-777777-9-999-10-11-1111111111----------|
E|--4-4-44444--7-7-77777-9---------------------------------------------|

---(4X)---
g|-------------------11b12-11b12-11b12-------11b12-11b12-11b12---------|
D|-------------------------------------12b13---------------------12b13-|
A|-------10S12---------------------------------------------------------|
E|-12-0---------12-0---------------------------------------------------|

Solo: 2:00
g|---------------------------------------|
D|--0-3-2-0---------------------2--------|
A|-----------3-2-0-2-3------2-3---5-3-2--|
E|----------------------3-5--------------|
g|-----------------------------------------------|
D|-----------------------------------------------|
A|--------------5-7-----5-7-8---5-7-8-9-10-11-12-|
E|--5-3---5-7-8-----5-8-------5------------------|

g|-----------------------------------------------|
D|-----------------------------------------------|
A|-------------3-3--5-5-7-8-8-------7-7-7-7-----|
E|--5-5--3-3------------------7-7------------7/--|
Verso 3: 2:19
g|------------------------------------------------------|
D|----------------------------------------5s75----------|
A|-------------3-3--5-5-7-8-8-------7-77-------8-75----|
E|--5-5--3-3------------------7-7-------------------7/--|
g|------------------------------------------------|
D|------------------------------------------------|
A|-------------3-3--5-5-7-8-8--------7-77-7-7----|
E|--5-5--3-3------------------7-7-------------7/--|
2:40
g|-----------------------------------------------|
D|-----------------------------------------------|
A|-------------3-3--5-5-7-8-8-------7-7-7-7-----|
E|--5-5--3-3------------------7-7------------7/--|
g|---------------------------------------------|
D|---------------------------------------------|
A|-------------3-3--5-5-7-8--------8-8--7------|
E|--5-5--3-3---------------9-9--7--------79---|
3:05
g|----------------------------------------|
D|------------12--------------------------|
A|--9-9-10-12----9-10-12--s5-4-5-5s7-5-4--|
E|----------------------------------------|
g|----------------------------------------------|
D|------------12s14-12--------------------------|
A|--9-9-10-12----------9-10-12--s5-4-4s9-7p5-4--|
E|----------------------------------------------|

3:24
g|--------9-7------------------------------------------------------|
D|--9-9-9-----11-12-9-----------9-9-9-9----------------------------|
A|---------------------9-9-9-9-----------99-9-99-9-9-7-5-4s9b11-9--|
E|-----------------------------------------------------------------|

Intro: Am G C D F B E
Am
G
C
Estoy tan lejos de mi tan fuera
B E
sintiendo el mar hablar
Am
G
C
me dice que haces aqui tan solo
B
E
que nadie te va a sacar

D
F
de la realidad
D
F
en esta mentira

Am
G
C
Y es que aca soy libre libre libre
D
F
B
E
sin problemas sin nadie que joda atras oh no oh no
Am
G
C
D
F
B
E
libre libre libre tan libre nena como la brisa del mar
Am
G
C
D
creo que voy a quedar como una cuerda rota
F
B
E
y nadie me va a parchar oh no
Am
G
C
D
pero tan solo el mirar la musica en el viento
F
B
E
y con la arena y el mar
Am
G
C
me siento libre libre libre
D
F
B
E
sin problemas sin nadie que joda atras oh no oh no
Am
G
C
D
F
B
E
libre libre libre tan libre nena como la brisa del mar
G#
B
E
F#
Aqui no hay nada que importe si sacas bien tu
pasaporte
G#
B
A
no importan tus amores no importan tus errores tus
problemas tus dilemas
F#m
E
ni nada que te puedas imaginar
Am
G
C
Y es que aca soy libre libre libre
D
F
B
E
sin problemas sin nadie que joda atras oh no oh no
Am
G
C
D
F
B
E
libre libre libre tan libre nena como la brisa del mar
Am G C D F B E A G Am Dm Bm E7 A
D A Bm A D A F#m G D G D F#m