Sunteți pe pagina 1din 2

Jireh Lim Buko

Capo 2nd Fret


(Strum Once)
Chords Used:
e|----3----|----2----|---------|----3----|----3----|----3----|
B|----3----|----3----|----1----|----3----|----3----|----4----|
G|---------|----x----|----2----|----2----|---------|----x----|
D|---------|----4----|----2----|---------|----2----|----5----|
A|----2----|----x----|---------|---------|----3----|----x----|
E|----3----|----2----|---------|---------|---------|----3----|
[G]
[Bm7]
[Am]
[Dsus4]
[Cadd9]
[Cm7]
e|----3----|---------|----4----|---------|---------|
B|----3----|----2----|----5----|---------|---------|
G|---------|----2----|----x----|----1----|----2----|
D|----2----|----2----|----6----|----2----|----2----|
A|----2----|---------|----x----|----2----|----2----|
E|---------|---------|----4----|---------|---------|
[Em7]
[A]
[C#m7]
[E]
[Esus4]
Intro:
G-Bm7-Am-Dsus4
G-Bm7-Am-Dsus4
Dsus4
Intro: (Lead)
e|--10------------------------10----------------------------|
B|--10---13-12---------10-10------13-12---------------------|
G|-------------12-14--------------------12-14-16-14-12------|
D|----------------------------------------------------------|
A|----------------------------------------------------------|
E|----------------------------------------------------------|
e|-------10-----------------------10--------------------------------|
B|-10-10------13-12---------10-10------13-12------------------------|
G|------------------12-14--------------------12-14-14/16-14-12------|
D|------------------------------------------------------------------|
A|------------------------------------------------------------------|
E|------------------------------------------------------------------|
Verse 1:
G-Bm7-Am-Dsus4
G-Bm7-Am-Dsus4
G-Bm7-Am-Dsus4
G-Bm7-Am-Dsus4
Pre Chorus:
Am-Bm7
Am-Bm7
Am-Bm7
Cadd9-Cm7-Cm7

1|Page

Chorus:
G-Bm7-Am-Dsus4
G-Bm7-Am-Dsus4
Am-Bm7
Am-Bm7
Cadd9-Dsus4
Intro:
G-Bm7-Am-Dsus4

Intro: (Lead)
e|--10-----------------------10----------------------------|
B|-------13-12---------10-10-----13-12---------------------|
G|-------------12-14-------------------12-14-14/16-14-12---|
D|---------------------------------------------------------|
A|---------------------------------------------------------|
E|---------------------------------------------------------|
Verse 2:
G-Bm7-Am-Dsus4
G-Bm7-Am-Dsus4
Dsus4
Chorus:
G-Bm7-Am-Dsus4
G-Bm7-Am-Dsus4
Am-Bm7
Am-Bm7
Cadd9-Dsus4
Bridge:
Cadd9-Dsus4-Em7-Dsus4
Cadd9-Dsus4-Em7-Dsus4
Cadd9
Single Strums:
G-Bm7-Am-Dsus4
Muted Strums:
G-Bm7-Am-Dsus4-A
Last Chorus:
A-C#m7-Bm7-E
A-C#m7-Bm7-E
A-C#m7-Bm7-E
A-C#m7-Bm7-E
Bm7-C#m
Bm7-C#m
Bm7-C#m
Bm7-C#m
Esus4-Esus4-E
A

2|Page