Sunteți pe pagina 1din 28

Title: Today

Artist:
Album:
Author: The Smashing Pumpkins

Track 1: Drums

C|------------|------------|------------|------------|----------------------------
---------|
C|------------|------------|------------|------------|----------------------------
---------|
C|------------|------------|------------|------------|-36--36----------------
36------------|
C|------------|------------|------------|------------|---------38-----38-36------
38-----38-|
C|------------|------------|------------|------------|----------------------------
---------|
C|------------|------------|------------|------------|----------------------------
---------|

C|-------------------------------------------|------------------------------------
-|
C|-------------------------------------------|------------------------------------
-|
C|-36--------38--------38--------38----------|-36--36----------------
36------------|
C|-----36-36-----36-36-----36-36-------45-41-|---------38-----38-36------38-----
38-|
C|-------------------------------------------|------------------------------------
-|
C|-------------------------------------------|------------------------------------
-|

C|-------------------------------------------|------------------------------------
-|
C|-------------------------------------------|------------------------------------
-|
C|-36--------38--------38--------38----------|-36--36----------------
36------------|
C|-----36-36-----36-36-----36-36----36-43-41-|---------38-----38-36------38-----
38-|
C|-------------------------------------------|------------------------------------
-|
C|-------------------------------------------|------------------------------------
-|

C|-------------------------------------|-----------------------------------|------
---------------------------------|
C|-------------------------------------|-----------------------------------|------
---------------------------------|
C|-36--36----------------36------------|-36--36----------------
36----------|---------------------------------------|
C|---------38-----38-36------38-43-41--|---------38-----38-36------38------|-38--
38--38--38--38--38-38-38-38-38-38-|
C|-------------------------------------|-----------------------------------|-36--
36--36--36--36--------------------|
C|-------------------------------------|-----------------------------------|------
---------------------------------|

C|-------------------------------------|------------------------------------------
-|
C|-------------------------------------|------------------------------------------
-|
C|-36--36----------------36------------|-36--------38--------38-----
38-------------|
C|---------38-----38-36------38-----38-|-----36-36-----36-36-----------36-36-38-
36-|
C|-------------------------------------|------------------------------------------
-|
C|-------------------------------------|------------------------------------------
-|

C|-------------------------------------|------------------------------------------
-|
C|-------------------------------------|------------------------------------------
-|
C|-36--36----------------36------------|-36--------38--------38-----
38-------------|
C|---------38-----38-36------38-----38-|-----36-36-----36-36-----------36-36-38-
36-|
C|-------------------------------------|------------------------------------------
-|
C|-------------------------------------|------------------------------------------
-|

C|-------------------------------------|------------------------------------------
-|
C|-------------------------------------|------------------------------------------
-|
C|-36--36----------------36------------|-36--------38--------38-----
38-------------|
C|---------38-----38-36------38-----38-|-----36-36-----36-36-----------36-36-38-
36-|
C|-------------------------------------|------------------------------------------
-|
C|-------------------------------------|------------------------------------------
-|

C|-------------------------------------|---------------------------------------|--
-----------------------------------|
C|-------------------------------------|---------------------------------------|--
-----------------------------------|
C|-36--36----------------36------------|---------------------------------------|-
36--36----------------36------------|
C|---------38-----38-36------38-----38-|-38--38--38--38--38--38-38-38-38-38-
38-|---------38-----38-36------38-----38-|
C|-------------------------------------|-36--36--36--36--
36--------------------|-------------------------------------|
C|-------------------------------------|---------------------------------------|--
-----------------------------------|

C|-------------------------------------------|------------------------------------
-|
C|-------------------------------------------|------------------------------------
-|
C|-36--------38--------38--------38----------|-36--36----------------
36------------|
C|-----36-36-----36-36-----36-36-------45-41-|---------38-----38-36------38-----
38-|
C|-------------------------------------------|------------------------------------
-|
C|-------------------------------------------|------------------------------------
-|

C|-------------------------------------------|------------------------------------
-|
C|-------------------------------------------|------------------------------------
-|
C|-36--------38--------38--------38----------|-36--36----------------
36------------|
C|-----36-36-----36-36-----36-36-------45-41-|---------38-----38-36------38-----
38-|
C|-------------------------------------------|------------------------------------
-|
C|-------------------------------------------|------------------------------------
-|

C|-------------------------------------------|------------------------------------
-|
C|-------------------------------------------|------------------------------------
-|
C|-36--------38--------38--------38----------|-36--36----------------
36------------|
C|-----36-36-----36-36-----36-36-------45-41-|---------38-----38-36------38-----
38-|
C|-------------------------------------------|------------------------------------
-|
C|-------------------------------------------|------------------------------------
-|

C|---------------------------------------|-------------------------------------|--
-----------------------------------------|
C|---------------------------------------|-------------------------------------|--
-----------------------------------------|
C|---------------------------------------|-36--36----------------36------------|-
36--------38--------38-----38-------------|
C|-38--38--38--38--38--38-38-38-38-38-38-|---------38-----38-36------38-----
38-|-----36-36-----36-36-----------36-36-38-36-|
C|-36--36--36--36--
36--------------------|-------------------------------------|---------------------
----------------------|
C|---------------------------------------|-------------------------------------|--
-----------------------------------------|

C|-------------------------------------|------------------------------------------
-|
C|-------------------------------------|------------------------------------------
-|
C|-36--36----------------36------------|-36--------38--------38-----
38-------------|
C|---------38-----38-36------38-----38-|-----36-36-----36-36-----------36-36-38-
36-|
C|-------------------------------------|------------------------------------------
-|
C|-------------------------------------|------------------------------------------
-|

C|-------------------------------------|------------------------------------------
-|
C|-------------------------------------|------------------------------------------
-|
C|-36--36----------------36------------|-36--------38--------38-----
38-------------|
C|---------38-----38-36------38-----38-|-----36-36-----36-36-----------36-36-38-
36-|
C|-------------------------------------|------------------------------------------
-|
C|-------------------------------------|------------------------------------------
-|

C|-------------------------------------|---------------------------------------|--
-----------------------------------|
C|-------------------------------------|---------------------------------------|--
-----------------------------------|
C|-36--36----------------36------------|---------------------------------------|-
36--36----------------36------------|
C|---------38-----38-36------38-----38-|-38--38--38--38--38--38-38-38-38-38-
38-|---------38-----38-36------38-----38-|
C|-------------------------------------|-36--36--36--36--
36--------------------|-------------------------------------|
C|-------------------------------------|---------------------------------------|--
-----------------------------------|

C|-------------------------------------------|------------------------------------
-|
C|-------------------------------------------|------------------------------------
-|
C|-36--------38--------38--------38----------|-36--36----------------
36------------|
C|-----36-36-----36-36-----36-36----36-43-41-|---------38-----38-36------38-----
38-|
C|-------------------------------------------|------------------------------------
-|
C|-------------------------------------------|------------------------------------
-|
C|-------------------------------------------|------------------------------------
-|
C|-------------------------------------------|------------------------------------
-|
C|-36--------38--------38--------38----------|-36--36----------------
36------------|
C|-----36-36-----36-36-----36-36----36-43-41-|---------38-----38-36------38-----
38-|
C|-------------------------------------------|------------------------------------
-|
C|-------------------------------------------|------------------------------------
-|

C|-------------------------------------------|------------------------------------
-|
C|-------------------------------------------|------------------------------------
-|
C|-36--------38--------38--------38----------|-36--36----------------
36------------|
C|-----36-36-----36-36-----36-36----36-43-41-|---------38-----38-36------38-----
38-|
C|-------------------------------------------|------------------------------------
-|
C|-------------------------------------------|------------------------------------
-|

C|---------------------------------|---------------------------------------|------
-------------------------------|
C|---------------------------------|---------------------------------------|------
-------------------------------|
C|---------------------------------|---------------------------------------|-36--
36----------------36------------|
C|-38--38--38--38--38--38--38--38--|-38--38--38--38--38--38-38-38-38-38-
38-|---------38-----38-36------38-----38-|
C|-36--36--36--36--36--36--36--36--|-36--36--36--36--
36--------------------|-------------------------------------|
C|---------------------------------|---------------------------------------|------
-------------------------------|

C|---------------------------------------|-------------------------------------|--
-------------------------------------|
C|---------------------------------------|-------------------------------------|--
-------------------------------------|
C|---------------------------------------|-36--36----------------
36------------|---------------------------------------|
C|-38--38--38--38--38--38-38-38-38-38-38-|---------38-----38-36------38-----38-|-
38--38--38--38--38--38-38-38-38-38-38-|
C|-36--36--36--36--36--------------------|-------------------------------------|-
36--36--36--36--36--------------------|
C|---------------------------------------|-------------------------------------|--
-------------------------------------|

C|-------------------------------------|---------------------------------------|--
---------------------------------------|
C|-------------------------------------|---------------------------------------|--
---------------------------------------|
C|-36--36----------------36------------|---------------------------------------|-
36--36----------------------------------|
C|---------38-----38-36------38-----38-|-38--38--38--38--38--38-38-38-38-38-
38-|---------38-----38-38--38-38-38-38-38-38-|
C|-------------------------------------|-36--36--36--36--
36--------------------|-----------------------------------------|
C|-------------------------------------|---------------------------------------|--
---------------------------------------|

C|-------------------------------------|------------------------------------------
-|
C|-------------------------------------|------------------------------------------
-|
C|-36--36----------------36------------|-36--------38--------38--------
38----------|
C|---------38-----38-36------38-----38-|-----36-36-----36-36-----36-36----36-43-
41-|
C|-------------------------------------|------------------------------------------
-|
C|-------------------------------------|------------------------------------------
-|

C|-------------------------------------|------------------------------------------
-|
C|-------------------------------------|------------------------------------------
-|
C|-36--36----------------36------------|-36--------38--------38--------
38----------|
C|---------38-----38-36------38-----38-|-----36-36-----36-36-----36-36----36-43-
41-|
C|-------------------------------------|------------------------------------------
-|
C|-------------------------------------|------------------------------------------
-|

C|-------------------------------------|------------------------------------------
-|
C|-------------------------------------|------------------------------------------
-|
C|-36--36----------------36------------|-36--------38--------38--------
38----------|
C|---------38-----38-36------38-----38-|-----36-36-----36-36-----36-36----36-43-
41-|
C|-------------------------------------|------------------------------------------
-|
C|-------------------------------------|------------------------------------------
-|

C|-------------------------------------|---------------------------------------|--
------|
C|-------------------------------------|---------------------------------------|--
------|
C|-36--36----------------
36------------|---------------------------------------|--------|
C|---------38-----38-36------38-----38-|-38--38--38--38--38--38-38-38-38-38-38-|-
36-----|
C|-------------------------------------|-36--36--36--36--
36--------------------|--------|
C|-------------------------------------|---------------------------------------|--
------|

Track 2: Guitar I

E|-11------13------11------15-11-----|-11------13------11------15-11-----|-
11------13------11------15-11-----|
B|-----11------11------11--------11--|-----11------11------11--------11--|-----
11------11------11--------11--|
G|-----------------------------------|-----------------------------------|--------
---------------------------|
D|-----------------------------------|-----------------------------------|--------
---------------------------|
A|-----------------------------------|-----------------------------------|--------
---------------------------|
E|-----------------------------------|-----------------------------------|--------
---------------------------|

E|-11------13------11------15-11-----|-11------13------11------15-11-----|-
11------13------11------15-11-----|
B|-----11------11------11--------11--|-----11------11------11--------11--|-----
11------11------11--------11--|
G|-----------------------------------|-----------------------------------|--------
---------------------------|
D|-----------------------------------|-----------------------------------|--------
---------------------------|
A|-----------------------------------|-----------------------------------|--------
---------------------------|
E|-----------------------------------|-----------------------------------|--------
---------------------------|

E|-11------13------11------15-11-----|-11------13------11------15-11-----|-
11------13------11------15-11-----|
B|-----11------11------11--------11--|-----11------11------11--------11--|-----
11------11------11--------11--|
G|-----------------------------------|-----------------------------------|--------
---------------------------|
D|-----------------------------------|-----------------------------------|--------
---------------------------|
A|-----------------------------------|-----------------------------------|--------
---------------------------|
E|-----------------------------------|-----------------------------------|--------
---------------------------|
E|-11------13------11------15-11-----|-11------13------11------15-11-----|-
11-------11-------11---|
B|-----11------11------11--------11--|-----11------11------11--------11--|------
11------11---11---|
G|-----------------------------------|-----------------------------------|--------
----------------|
D|-----------------------------------|-----------------------------------|--------
----------------|
A|-----------------------------------|-----------------------------------|--------
----------------|
E|-----------------------------------|-----------------------------------|--------
----------------|

E|--------|--------|--------|--------|--------|--------|--------|--------|--------
|
B|--------|--------|--------|--------|--------|--------|--------|--------|--------
|
G|--------|--------|--------|--------|--------|--------|--------|--------|--------
|
D|--------|--------|--------|--------|--------|--------|--------|--------|--------
|
A|--------|--------|--------|--------|--------|--------|--------|--------|--------
|
E|--------|--------|--------|--------|--------|--------|--------|--------|--------
|

E|--------|--------|--------|--------|--------|--------|--------|-----------------
----------------|
B|--------|--------|--------|--------|--------|--------|--------|-----------------
--------8---9---|
G|--------|--------|--------|--------|--------|--------|--------|-8-------10------
8---------------|
D|--------|--------|--------|--------|--------|--------|--------|-----8-------
8-------8-----------|
A|--------|--------|--------|--------|--------|--------|--------|-----------------
----------------|
E|--------|--------|--------|--------|--------|--------|--------|-----------------
----------------|

E|-----------------------------------------|---------------------------------|----
-----------------------------------|
B|-----------------------------9--8--------|-------------------------8---
9---|-----------------11--------9--8--------|
G|-8-----------8--8--8------8--------8-----|-8-------10------8---------------|-
8-----------8----------8--------8-----|
D|-----8-------10-10-10--10-------------10-|-----8-------8-------
8-----------|-----8---------------10-------------10-|
A|---------
11------------------------------|---------------------------------|---------
11----------------------------|
E|-----------------------------------------|---------------------------------|----
-----------------------------------|

E|---------------------------------|-------------------------------------------|--
-------------------------------------|
B|-------------------------8---9---|---------------------11--------9-----
8-----|---------------------------------------|
G|-8-------10------8---------------|-8-------------8--8------------------------|-
8-------10--------8-------10-8-----8--|
D|-----8-------8-------8-----------|-----8--8--10------------10-10----10----
10-|-----8-------8--8------8---------11----|
A|---------------------------------|-------------------------------------------|--
-------------------------------------|
E|---------------------------------|-------------------------------------------|--
-------------------------------------|

E|--------------|--------|--------|--------|--------|--------|--------|--------|--
------|
B|--------------|--------|--------|--------|--------|--------|--------|--------|--
------|
G|--------------|--------|--------|--------|--------|--------|--------|--------|--
------|
D|--------------|--------|--------|--------|--------|--------|--------|--------|--
------|
A|--------------|--------|--------|--------|--------|--------|--------|--------|--
------|
E|--------------|--------|--------|--------|--------|--------|--------|--------|--
------|

E|--------|--------|--------|--------|--------|--------|--------|--------|--------
|
B|--------|--------|--------|--------|--------|--------|--------|--------|--------
|
G|--------|--------|--------|--------|--------|--------|--------|--------|--------
|
D|--------|--------|--------|--------|--------|--------|--------|--------|--------
|
A|--------|--------|--------|--------|--------|--------|--------|--------|--------
|
E|--------|--------|--------|--------|--------|--------|--------|--------|--------
|

E|--------|--------|--------|--------|--------|--------|--------|--------|
B|--------|--------|--------|--------|--------|--------|--------|--------|
G|--------|--------|--------|--------|--------|--------|--------|--------|
D|--------|--------|--------|--------|--------|--------|--------|--------|
A|--------|--------|--------|--------|--------|--------|--------|--------|
E|--------|--------|--------|--------|--------|--------|--------|--------|

Track 3: Guitar II

E|--------|--------|--------|--------|----------------------|---------------------
-|
B|--------|--------|--------|--------|----------------------|---------------------
-|
G|--------|--------|--------|--------|-12----12---12-12-12--|-12----12---12-12-
12--|
D|--------|--------|--------|--------|----------------------|---------------------
-|
A|--------|--------|--------|--------|----------------------|---------------------
-|
E|--------|--------|--------|--------|----------------------|---------------------
-|

E|-------------------------------|---------------------------------------|--------
---------------------|
B|-------------------------------|---------------------------------------|--------
---------------------|
G|---------12-----12---12-12-12--|-----------12----------------12-12-12--|------
12-----------12-12-12--|
D|-13----------13----------------|-13--13-13-----13------13-13-----------|-
13--------------------------|
A|-------------------------------|---------------------------------------|--------
---------------------|
E|-------------------------------|---------------------------------------|--------
---------------------|

E|-----------------------------------|-----------------------|--------------------
|
B|-----------------------------------|-----------------------|-
13-----------------|
G|---------12----------12--12-12-12--|-12----12--0---12--12--|------
12------------|
D|-13--13------13--13----------------|-----------------------|----------
13--------|
A|-----------------------------------|-----------------------|--------------------
|
E|-----------------------------------|-----------------------|--------------------
|

E|--------|--------|--------|--------|--------|--------|--------|----------------
8--------|
B|--------|--------|--------|--------|--------|--------|--------|-------6--8--
8------8----|
G|--------|--------|--------|--------|--------|--------|--------|-----------------
--------|
D|--------|--------|--------|--------|--------|--------|--------|-----------------
--------|
A|--------|--------|--------|--------|--------|--------|--------|-----------------
--------|
E|--------|--------|--------|--------|--------|--------|--------|-----------------
--------|

E|--------|-----------------|----------------|--------|--------|-----------------|
B|--------|-----------------|----------------|--------|--------|-----------------|
G|--------|-------10---10---|-10----10--10---|--------|--------|-------10---10---|
D|--------|-----------------|----------------|--------|--------|-----------------|
A|--------|-----------------|----------------|--------|--------|-----------------|
E|--------|-----------------|----------------|--------|--------|-----------------|
E|----------------|--------|--------|--------|--------|--------|--------|--------|
B|----------------|--------|--------|--------|--------|--------|--------|--------|
G|-10----10--10---|--------|--------|--------|--------|--------|--------|--------|
D|----------------|--------|--------|--------|--------|--------|--------|--------|
A|----------------|--------|--------|--------|--------|--------|--------|--------|
E|----------------|--------|--------|--------|--------|--------|--------|--------|

E|--------|--------|------------------------|-------------------------------------
|
B|--------|--------|-8-----8----8--8--8-----|-8---8---8---8---8---8---8--8--
8-----|
G|--------|--------|---------------------7--|----------------------------------
7--|
D|--------|--------|------------------------|-------------------------------------
|
A|--------|--------|------------------------|-------------------------------------
|
E|--------|--------|------------------------|-------------------------------------
|

E|-------------------------------------|-------------------------------------|----
---------------------------------|
B|-8---8---8---8---8---8---8--8--8-----|-8---8---8---8---8---8---8--8--8-----|-
8---8---8---8---8---8---8--8--8-----|
G|----------------------------------7--|----------------------------------
7--|----------------------------------7--|
D|-------------------------------------|-------------------------------------|----
---------------------------------|
A|-------------------------------------|-------------------------------------|----
---------------------------------|
E|-------------------------------------|-------------------------------------|----
---------------------------------|

E|-------------------------------------|-------------------------------------|----
---------------8------------------------|
B|-8---8---8---8---8---8---8--8--8-----|-8---8---8---8---8---8---8--8--8-----|-
8----8---------8---------------------------|
G|----------------------------------
7--|-------------------------------------|-------------9--------9--9---9--9--10-
7--9--|
D|-------------------------------------|-------------------------------------|----
------10--------------------------------|
A|-------------------------------------|-------------------------------------|----
----------------------------------------|
E|-------------------------------------|-------------------------------------|----
----------------------------------------|

E|-----------------------------------------|--------------------------|-----------
------|
B|-----------------------------------------|--------------------------|-----------
------|
G|-----------------------------------------|--------------------------|-------
10---10---|
D|-10--12-10-12-10-12-10-8--10-10-10--10---|-10-10-10--10---
10--------|-----------------|
A|-----------------------------------------|--------------------------|-----------
------|
E|-----------------------------------------|--------------------------|-----------
------|

E|--------|--------|--------|-----------------|--------|--------|-----------------
--------|
B|--------|--------|--------|-----------------|--------|--------|-------8------6--
6---4---|
G|-12-----|--------|--------|-------10---10---|-12-----|--------|-------10--8--8--
8---6---|
D|--------|--------|--------|-----------------|--------|--------|-----------------
--------|
A|--------|--------|--------|-----------------|--------|--------|-----------------
--------|
E|--------|--------|--------|-----------------|--------|--------|-----------------
--------|

E|-------------|-------------------------------|------------|-------
11--------------|
B|-4-----------|-------------------------------|------------|-------14--11--13--
11--|
G|-6-----------|-------12-13-12-10-12-10-12-13-|-15---------|---------------15--
13--|
D|-------------|-------------------------------|------------|---------------------
--|
A|-------------|-------10-11-10-8--10-8--10-11-|-
13---------|-----------------------|
E|-------------|-------------------------------|------------|---------------------
--|

E|-------------|--------|--------|
B|-11----------|--------|--------|
G|-13----------|--------|--------|
D|-------------|--------|--------|
A|-------------|--------|--------|
E|-------------|--------|--------|

Track 4: Guitar III

E|--------|--------|--------|--------|-------------------------------------|------
---------------------------------|
B|--------|--------|--------|--------|-------------------------------------|------
---------------------------------|
G|--------|--------|--------|--------|-8---8---
8---------------------------|---------------------------------------|
D|--------|--------|--------|--------|-8---8---8---8--8--8---8---8---------|-6---
6---6---6--6--6---6--6--6--6--6---|
A|--------|--------|--------|--------|-6---6---6---8--8--8---8---8---------|-6---
6---6---6--6--6---6--6--6--6--6---|
E|--------|--------|--------|--------|-6---6---6---6--6--6---6---6---0--0--|-4---
4---4---4--4--4---4--4--4--4--4---|

E|-------------------------------------|---------------------------------------|--
-----------------------------------|
B|-------------------------------------|---------------------------------------|--
-----------------------------------|
G|-8---8---8---------------------------|---------------------------------------|-
8---8---8---------------------------|
D|-8---8---8---8--8--8---8---8---------|-6---6---6---6--6--6---6--6--6--6--6---|-
8---8---8---8--8--8---8---8---------|
A|-6---6---6---8--8--8---8---8---------|-6---6---6---6--6--6---6--6--6--6--6---|-
6---6---6---8--8--8---8---8---------|
E|-6---6---6---6--6--6---6---6---0--0--|-4---4---4---4--4--4---4--4--4--4--4---|-
6---6---6---6--6--6---6---6---0--0--|

E|---------------------------------------|-------------------------------------|--
-------------------------------------|
B|---------------------------------------|-------------------------------------|--
-------------------------------------|
G|---------------------------------------|-8---8---8---8--
8--------------------|---------------------------------------|
D|-10--10--10--------6---6---6--6--6--8--|-8---8---8---8--8--8---8---8---------|-
6---6---6---6---6---6--6--6--6--6--6--|
A|-10--10--10--------6---6---6--6--6--8--|-6---6---6---6--6--8---8---8---------|-
6---6---6---6---6---6--6--6--6--6--6--|
E|-8---8---8---0--0--4---4---4--4--4--6--|-6---6---6---6--6--6---6---6---0--0--|-
4---4---4---4---4---4--4--4--4--4--4--|

E|--------|--------|--------|--------|--------|--------|--------|--------|--------
-----------------------------|
B|--------|--------|--------|--------|--------|--------|--------|--------|--------
-----------------------------|
G|--------|--------|--------|--------|--------|--------|--------|--------|--------
-----------------------------|
D|--------|--------|--------|--------|--------|--------|--------|--------|-3---
3---3---3--3--6---6---6---6--6--|
A|--------|--------|--------|--------|--------|--------|--------|--------|-3---
3---3---3--3--6---6---6---6--6--|
E|--------|--------|--------|--------|--------|--------|--------|--------|-1---
1---1---1--1--4---4---4---4--4--|

E|-------------------------------------------|------------------------------------
-|
B|-------------------------------------------|------------------------------------
-|
G|-------------------------------------------|------------------------------------
-|
D|-10--10-10-10--10-10-10--10-10-10-10-10-10-|-3---3---3---3--3--6---6---6---6--
6--|
A|-10--10-10-10--10-10-10--10-10-10-10-10-10-|-3---3---3---3--3--6---6---6---6--
6--|
E|-8---8--8--8---8--8--8---8--8--8--8--8--8--|-1---1---1---1--1--4---4---4---4--
4--|

E|-------------------------------------------|------------------------------------
-|
B|-------------------------------------------|------------------------------------
-|
G|-------------------------------------------|------------------------------------
-|
D|-10--10-10-10--10-10-10--10-10-10-10-10-10-|-3---3---3---3--3--6---6---6---6--
6--|
A|-10--10-10-10--10-10-10--10-10-10-10-10-10-|-3---3---3---3--3--6---6---6---6--
6--|
E|-8---8--8--8---8--8--8---8--8--8--8--8--8--|-1---1---1---1--1--4---4---4---4--
4--|

E|-------------------------------------------|------------------------------------
-|
B|-------------------------------------------|------------------------------------
-|
G|-------------------------------------------|------------------------------------
-|
D|-10--10-10-10--10-10-10--10-10-10-10-10-10-|-3---3---3---3--3--6---6---6---6--
6--|
A|-10--10-10-10--10-10-10--10-10-10-10-10-10-|-3---3---3---3--3--6---6---6---6--
6--|
E|-8---8--8--8---8--8--8---8--8--8--8--8--8--|-1---1---1---1--1--4---4---4---4--
4--|

E|-----------------------------------------|--------|--------|--------|--------|--
------|
B|-----------------------------------------|--------|--------|--------|--------|--
------|
G|-----------------------------------------|--------|--------|--------|--------|--
------|
D|-5---5---5---5--12-12--12-12-12-12-12-
12-|--------|--------|--------|--------|--------|
A|-5---5---5---5--12-12--12-12-12-12-12-
12-|--------|--------|--------|--------|--------|
E|-3---3---3---3--10-10--10-10-10-10-10-
10-|--------|--------|--------|--------|--------|

E|--------|--------|-----------------------------------------|--------------------
-----------------|
B|--------|--------|-----------------------------------------|--------------------
-----------------|
G|--------|--------|-----------------------------------------|-8---8---8---8--
8--------------------|
D|--------|--------|-5---5---5---5--12-12--12-12-12-12-12-12-|-8---8---8---8--8--
8---8---8---------|
A|--------|--------|-5---5---5---5--12-12--12-12-12-12-12-12-|-6---6---6---6--6--
8---8---8---6--6--|
E|--------|--------|-3---3---3---3--10-10--10-10-10-10-10-10-|-6---6---6---6--6--
6---6---6---6--6--|
E|-------------------------------------|-------------------------------------|----
---------------------------------|
B|-------------------------------------|-------------------------------------|----
---------------------------------|
G|-8---8---8---------------------------|-8---8---8---8--8--------------------|-
8---8---8---8-----------------------|
D|-8---8---8---------6---6---6---6--8--|-8---8---8---8--8--8---8---8---8-----|-
8---8---8---8-----6---6---6---6--8--|
A|-6---6---6---------6---6---6---6--8--|-6---6---6---6--6--8---8---8---8--6--|-
6---6---6---6-----6---6---6---6--8--|
E|-6---6---6---0--0--4---4---4---4--6--|-6---6---6---6--6--6---6---6---6--6--|-
6---6---6---6--0--4---4---4---4--6--|

E|-------------------------------------|-----------------------------------------|
B|-------------------------------------|-----------------------------------------|
G|-8---8---8---8--8--------------------|-----------------------------------------|
D|-8---8---8---8--8--8---8---8---8--10-|-10--10-10-10--10-6--6---6---6--6--6--8--|
A|-6---6---6---6--6--8---8---8---8--10-|-10--10-10-10--10-6--6---6---6--6--6--8--|
E|-6---6---6---6--6--6---6---6---6--8--|-8---8--8--8---8--4--4---4---4--4--4--6--|

E|-------------------------------------|---------------------------------|--------
-----------------------------|
B|-------------------------------------|---------------------------------|--------
-----------------------------|
G|-8---8---8---8--
8--------------------|---------------------------------|--------------------------
-----------|
D|-8---8---8---8--8--8---8---8---8--10-|-10--10--10--10--10--10--10--10--|-10--
10--10--10--10--10-10-10--10-10-|
A|-6---6---6---6--6--8---8---8---8--10-|-10--10--10--10--10--10--10--10--|-10--
10--10--10--10--10-10-10--10-10-|
E|-6---6---6---6--6--6---6---6---6--8--|-8---8---8---8---8---8---8---8---|-8---
8---8---8---8---8--8--8---8--8--|

E|-------------------------------------|------------------------------------------
-|
B|-------------------------------------|------------------------------------------
-|
G|-------------------------------------|------------------------------------------
-|
D|-3---3---3---3--3--6---6---6---6--6--|-10--10-10-10--10-10-10--10-10-10-10-10-
10-|
A|-3---3---3---3--3--6---6---6---6--6--|-10--10-10-10--10-10-10--10-10-10-10-10-
10-|
E|-1---1---1---1--1--4---4---4---4--4--|-8---8--8--8---8--8--8---8--8--8--8--8--
8--|

E|-------------------------------------|------------------------------------------
-|
B|-------------------------------------|------------------------------------------
-|
G|-------------------------------------|------------------------------------------
-|
D|-3---3---3---3--3--6---6---6---6--6--|-10--10-10-10--10-10-10--10-10-10-10-10-
10-|
A|-3---3---3---3--3--6---6---6---6--6--|-10--10-10-10--10-10-10--10-10-10-10-10-
10-|
E|-1---1---1---1--1--4---4---4---4--4--|-8---8--8--8---8--8--8---8--8--8--8--8--
8--|

E|-------------------------------------|------------------------------------------
-|
B|-------------------------------------|------------------------------------------
-|
G|-------------------------------------|------------------------------------------
-|
D|-3---3---3---3--3--6---6---6---6--6--|-10--10-10-10--10-10-10--10-10-10-10-10-
10-|
A|-3---3---3---3--3--6---6---6---6--6--|-10--10-10-10--10-10-10--10-10-10-10-10-
10-|
E|-1---1---1---1--1--4---4---4---4--4--|-8---8--8--8---8--8--8---8--8--8--8--8--
8--|

E|-----------------------------------------|-------------------------------------|
B|-----------------------------------------|-------------------------------------|
G|-----------------------------------------|-8---8---8---------------------------|
D|-3---3---3---------6---6--6--6--6--6--8--|-8---8---8---8--8--8---8---8---8--8--|
A|-3---3---3---------6---6--6--6--6--6--8--|-6---6---6---8--8--8---8---8---8--8--|
E|-1---1---1---0--0--4---4--4--4--4--4--6--|-6---6---6---6--6--6---6---6---6--6--|

E|-----------------------------------------|-------------------------------------|
B|-----------------------------------------|-------------------------------------|
G|-----------------------------------------|-8---8---8---------------------------|
D|-10--10--10--10-10-6---6--6--6--6--8--8--|-8---8---8---8--8--8---8---8---8--8--|
A|-10--10--10--10-10-6---6--6--6--6--8--8--|-6---6---6---8--8--8---8---8---8--8--|
E|-8---8---8---8--8--4---4--4--4--4--6--6--|-6---6---6---6--6--6---6---6---6--6--|

E|-----------------------------------------|-------------------------------------|
B|-----------------------------------------|-------------------------------------|
G|-----------------------------------------|-8---8---8---------------------------|
D|-10--10--10--10-10-6---6--6--6--6--8--8--|-8---8---8---8--8--8---8---8---8--8--|
A|-10--10--10--10-10-6---6--6--6--6--8--8--|-6---6---6---8--8--8---8---8---8--8--|
E|-8---8---8---8--8--4---4--4--4--4--6--6--|-6---6---6---6--6--6---6---6---6--6--|

E|-----------------------------------------|-------------------------------------|
B|-----------------------------------------|-------------------------------------|
G|-----------------------------------------|-8---8---8---------------------------|
D|-10--10--10--10-10-6---6--6--6--6--8--8--|-8---8---8---8--8--8---8---8---8--8--|
A|-10--10--10--10-10-6---6--6--6--6--8--8--|-6---6---6---8--8--8---8---8---8--8--|
E|-8---8---8---8--8--4---4--4--4--4--6--6--|-6---6---6---6--6--6---6---6---6--6--|

E|-----------------------------------------|--------|
B|-----------------------------------------|--------|
G|-----------------------------------------|-8------|
D|-10--10--10--10-10-6---6--6--6--6--8--8--|-8------|
A|-10--10--10--10-10-6---6--6--6--6--8--8--|-6------|
E|-8---8---8---8--8--4---4--4--4--4--6--6--|-6------|

Track 5: Guitar IV

E|--------|--------|--------|--------|--------|--------|--------|--------|--------
|
B|--------|--------|--------|--------|--------|--------|--------|--------|--------
|
G|--------|--------|--------|--------|--------|--------|--------|--------|--------
|
D|--------|--------|--------|--------|--------|--------|--------|--------|--------
|
A|--------|--------|--------|--------|--------|--------|--------|--------|--------
|
E|--------|--------|--------|--------|--------|--------|--------|--------|--------
|

E|--------|--------|--------|---------------------------6---------|---------4---
4--4--4--4--4--4--4--4--------|
B|--------|--------|--------|-8-------8-----------------6---------|---------4---
4--4--4--4--4--4--4--4--------|
G|--------|--------|--------|-8---8---8---------7---7---7---------|-5---5---5---
5--5--5--5--5--5--5--5--------|
D|--------|--------|--------|-8---8---8------8--8---8---8---0--0--|-6---6---6---
6-----6-----6--------6--6--8--|
A|--------|--------|--------|-6---6---6---8--8--8---8---8---0--0--|-6---6---6---
6-----6-----6-----------6--8--|
E|--------|--------|--------|-6---6---6---6--6--6---6---6---0--0--|-4---4---4---
4-----4-----4-----------4--6--|

E|-------------------------------------|---------4---4--4--4--4--4--4--4--
4--------|
B|-8-----------------------------------|---------4---4--4--4--4--4--4--4--
4--------|
G|-8---8---8---------7---7---7---------|-5---5---5---5--5--5--5--5--5--5--
5--------|
D|-8---8---8------8--8---8---8---0--0--|-6---6---6---6--6--6-----6--------6--6--
8--|
A|-6---6---6---8--8--8---8---8---0--0--|-6---6---6---6-----6-----6-----------6--
8--|
E|-6---6---6---6--6--6---6---6---0--0--|-4---4---4---4-----4-----4-----------4--
6--|

E|---------------------------6---------|---------4---4--4--4--4--4--4--4--
4--------|
B|-8-------8-----------------6---------|---------4---4--4--4--4--4--4--4--
4--------|
G|-8---8---8---------7---7---7---------|-5---5---5---5--5--5--5--5--5--5--
5--------|
D|-8---8---8------8--8---8---8---0--0--|-6---6---6---6-----6-----6--------6--6--
8--|
A|-6---6---6---8--8--8---8---8---0--0--|-6---6---6---6-----6-----6-----------6--
8--|
E|-6---6---6---6--6--6---6---6---0--0--|-4---4---4---4-----4-----4-----------4--
6--|

E|---------------------------6---------|-----8---8---
8-------------------------|--------|
B|-8-------8-----------------6---------|-8---8---8---8-------8--
8--------------|--------|
G|-8---8---8---------7---7---7---------|-9---9---9---9---9---9--9--9--9--9--
9--|--------|
D|-8---8---8------8--8---8---8---------|-10--10--10--10--10--10-10-10-10-10-
10-|--------|
A|-6---6---6---8--8--8---8---8---8--8--|-10--10--10--10--10--10----10-10-10-
10-|--------|
E|-6---6---6---6--6--6---6---6---6--6--|-8---8---8---8---8---8-----8--8--8--
8--|--------|

E|--------|--------|--------|--------|--------|--------|--------|-----------------
----------6---------|
B|--------|--------|--------|--------|--------|--------|--------|-8-------
8-----------------6---------|
G|--------|--------|--------|--------|--------|--------|--------|-8---8---
8---------7---7---7---------|
D|--------|--------|--------|--------|--------|--------|--------|-8---8---8------
8--8---8---8---0--0--|
A|--------|--------|--------|--------|--------|--------|--------|-6---6---6---8--
8--8---8---8---0--0--|
E|--------|--------|--------|--------|--------|--------|--------|-6---6---6---6--
6--6---6---6---0--0--|

E|---------4---4--4--4--4--4--4--4--
4--------|-------------------------------------|
B|---------4---4--4--4--4--4--4--4--4--------|-
8-----------------------------------|
G|-5---5---5---5--5--5--5--5--5--5--5--------|-8---8---8---------7---7---
7---------|
D|-6---6---6---6-----6-----6--------6--6--8--|-8---8---8------8--8---8---8---0--
0--|
A|-6---6---6---6-----6-----6-----------6--8--|-6---6---6---8--8--8---8---8---0--
0--|
E|-4---4---4---4-----4-----4-----------4--6--|-6---6---6---6--6--6---6---6---0--
0--|

E|---------4---4--4--4--4--4--4--4--4--------|---------------------------
6---------|
B|---------4---4--4--4--4--4--4--4--4--------|-8-------8-----------------
6---------|
G|-5---5---5---5--5--5--5--5--5--5--5--------|-8---8---8---------7---7---
7---------|
D|-6---6---6---6--6--6-----6--------6--6--8--|-8---8---8------8--8---8---8---0--
0--|
A|-6---6---6---6-----6-----6-----------6--8--|-6---6---6---8--8--8---8---8---0--
0--|
E|-4---4---4---4-----4-----4-----------4--6--|-6---6---6---6--6--6---6---6---0--
0--|

E|---------4---4--4--4--4--4--4--4--4--------|---------------------------
6---------|
B|---------4---4--4--4--4--4--4--4--4--------|-8-------8-----------------
6---------|
G|-5---5---5---5--5--5--5--5--5--5--5--------|-8---8---8---------7---7---
7---------|
D|-6---6---6---6-----6-----6--------6--6--8--|-8---8---8------8--8---8---
8---------|
A|-6---6---6---6-----6-----6-----------6--8--|-6---6---6---8--8--8---8---8---8--
8--|
E|-4---4---4---4-----4-----4-----------4--6--|-6---6---6---6--6--6---6---6---6--
6--|

E|--------------|--------|--------|--------|--------|--------|--------|--------|--
------|
B|--------------|--------|--------|--------|--------|--------|--------|--------|--
------|
G|--------------|--------|--------|--------|--------|--------|--------|--------|--
------|
D|--------------|--------|--------|--------|--------|--------|--------|--------|--
------|
A|--------------|--------|--------|--------|--------|--------|--------|--------|--
------|
E|--------------|--------|--------|--------|--------|--------|--------|--------|--
------|

E|--------|--------|--------|--------|--------|--------|--------|--------|--------
|
B|--------|--------|--------|--------|--------|--------|--------|--------|--------
|
G|--------|--------|--------|--------|--------|--------|--------|--------|--------
|
D|--------|--------|--------|--------|--------|--------|--------|--------|--------
|
A|--------|--------|--------|--------|--------|--------|--------|--------|--------
|
E|--------|--------|--------|--------|--------|--------|--------|--------|--------
|

E|--------|--------|--------|--------|--------|--------|--------|--------|
B|--------|--------|--------|--------|--------|--------|--------|--------|
G|--------|--------|--------|--------|--------|--------|--------|--------|
D|--------|--------|--------|--------|--------|--------|--------|--------|
A|--------|--------|--------|--------|--------|--------|--------|--------|
E|--------|--------|--------|--------|--------|--------|--------|--------|
Track 6: Bass

G|------------|------------|------------|------------|----------------------------
-----|
D|------------|------------|------------|------------|----------------------------
-----|
A|------------|------------|------------|------------|-6---6---6---
6-------------------|
E|------------|------------|------------|------------|-----------------6---6---
6---6---|

G|---------------------------------|---------------------------------|------------
---------------------|
D|---------------------------------|---------------------------------|------------
---------------------|
A|---------------------------------|-6---6---6---
6-------------------|---------------------------------|
E|-4---4---4---4---4---4---4---4---|-----------------6---6---6---6---|-4---4---
4---4---4---4---4---4---|

G|---------------------------------|---------------------------------|------------
---------------------|
D|---------------------------------|---------------------------------|------------
---------------------|
A|-6---6---6---6-------------------|---------------------------------|-6---6---
6---6-------------------|
E|-----------------6---6---6---6---|-8---8---8---8---4---4---4---
4---|-----------------6---6---6---6---|

G|---------------------------------|------------|------------|------------|-------
-----|
D|---------------------------------|------------|------------|------------|-------
-----|
A|---------------------------------|------------|------------|------------|-------
-----|
E|-8---8---8---8---8---8---8---
8---|------------|------------|------------|------------|

G|---------------------------------|---------------------------------|------------
---------------------|
D|---------------------------------|---------------------------------|------------
---------------------|
A|-6---6---6---6-------------------|---------------------------------|-6---6---
6---6-------------------|
E|-----------------6---6---6---6---|-4---4---4---4---4---4---4---
4---|-----------------6---6---6---6---|

G|---------------------------------|-------------------------------------|--------
-----------------------------------|
D|---------------------------------|-------------------------------------|--------
-----------------------------------|
A|---------------------------------|-------------------------------------|-3---3--
3--3---3--3--3---3--3--3--3--3--3--|
E|-8---8---8---8---8---8---8---8---|-1---1---1---1--1--4---4---4---4--
4--|-------------------------------------------|

G|-------------------------------------|------------------------------------------
-|
D|-------------------------------------|------------------------------------------
-|
A|-------------------------------------|-3---3--3--3---3--3--3---3--3--3--3--3--
3--|
E|-1---1---1---1--1--4---4---4---4--
4--|-------------------------------------------|

G|-------------------------------------|------------------------------------------
-|
D|-------------------------------------|------------------------------------------
-|
A|-------------------------------------|-3---3--3--3---3--3--3---3--3--3--3--3--
3--|
E|-1---1---1---1--1--4---4---4---4--
4--|-------------------------------------------|

G|-------------------------------------|---------------------------------|--------
-------------------------|
D|-------------------------------------|---------------------------------|--------
-------------------------|
A|-------------------------------------|-----------------5---5---5---5---|-6---
6---6---6-------------------|
E|-1---1---1---1--1--4---4---4---4--4--|-3---3---3---
3-------------------|-----------------6---6---6---6---|

G|---------------------------------|---------------------------------|------------
---------------------|
D|---------------------------------|---------------------------------|------------
---------------------|
A|---------------------------------|-6---6---6---
6-------------------|---------------------------------|
E|-4---4---4---4---4---4---4---4---|-----------------6---6---6---6---|-4---4---
4---4---4---4---4---4---|

G|---------------------------------|---------------------------------|------------
---------------------|
D|---------------------------------|---------------------------------|------------
---------------------|
A|-6---6---6---6-------------------|---------------------------------|-6---6---
6---6-------------------|
E|-----------------6---6---6---6---|-4---4---4---4---4---4---4---
4---|-----------------6---6---6---6---|

G|---------------------------------|---------------------------------|------------
---------------------|
D|---------------------------------|---------------------------------|------------
---------------------|
A|-----------------5---5---5---5---|-6---6---6---6-------------------|-6---6---
6---6-------------------|
E|-3---3---3---3-------------------|-----------------6---6---6---
6---|-----------------4---4---4---4---|

G|---------------------------------|---------------------------------|------------
---------------------|
D|---------------------------------|---------------------------------|------------
---------------------|
A|-6---6---6---6-------------------|-6---6---6---6-------------------|-6---6---
6---6-------------------|
E|-----------------6---6---6---6---|-----------------4---4---4---
4---|-----------------6---6---6---6---|

G|---------------------------------|---------------------------------|------------
---------------------|
D|---------------------------------|---------------------------------|------------
---------------------|
A|-3---3---3---3-------------------|-6---6---6---6-------------------|-3---3---
3---3---3---3---3---3---|
E|-----------------4---4---4---4---|-----------------6---6---6---
6---|---------------------------------|

G|---------------------------------|-------------------------------------|--------
-------------------------|
D|---------------------------------|-------------------------------------|--------
-------------------------|
A|-3---3---3---3---3---3---3---3---|-------------------------------------|-3---
3---3---3---3---3---3---3---|
E|---------------------------------|-1---1---1---1--1--4---4---4---4--
4--|---------------------------------|

G|-------------------------------------|---------------------------------|--------
-----------------------------|
D|-------------------------------------|---------------------------------|--------
-----------------------------|
A|-------------------------------------|-3---3---3---3---3---3---3---
3---|-------------------------------------|
E|-1---1---1---1--1--4---4---4---4--4--|---------------------------------|-1---
1---1---1--1--4---4---4---4--4--|

G|---------------------------------|-------------------------------------|--------
-------------------------|
D|---------------------------------|-------------------------------------|--------
-------------------------|
A|-3---3---3---3---3---3---3---3---|-------------------------------------|-6---
6---6---6-------------------|
E|---------------------------------|-1---1---1------1--4---4---4---4--
4--|-----------------6---6---6---6---|

G|---------------------------------|-------------------------------------|--------
-------------------------------|
D|---------------------------------|-------------------------------------|--------
-------------------------------|
A|-3---3---3---3-------------------|-6---6---6---6--6--------------------|-3---
3---3---3--3----------------------|
E|-----------------4---4---4---6---|-------------------6---6---6---6--
6--|-------------------4---4--4--4--4--6---|

G|-------------------------------------|-----------------------------------|------
-------------------------------|
D|-------------------------------------|-----------------------------------|------
-------------------------------|
A|-6---6---6---------------------------|-3---3---3---3--3------------------|-6---
6---6---------------------------|
E|-------------6--6--6---6---6---6--6--|-------------------4---4---4---
6---|-------------6--6--6---6---6---6--6--|

G|-----------------------------------|--------|
D|-----------------------------------|--------|
A|-3---3---3---3--3------------------|-6------|
E|-------------------4---4---4---6---|--------|

Track 7: Cymbals

C|------------|------------|------------|------------|----------------------------
-----|
C|------------|------------|------------|------------|-49--51--51--51--51--51--
51--51--|
C|------------|------------|------------|------------|----------------------------
-----|
C|------------|------------|------------|------------|----------------------------
-----|
C|------------|------------|------------|------------|----------------------------
-----|
C|------------|------------|------------|------------|----------------------------
-----|

C|---------------------------------|---------------------------------|------------
---------------------|
C|-51--51--51--51--51--51--51------|-49--51--51--51--51--51--51--51--|-51--51--
51--51--51--51--51------|
C|---------------------------------|---------------------------------|------------
---------------------|
C|---------------------------------|---------------------------------|------------
---------------------|
C|---------------------------------|---------------------------------|------------
---------------------|
C|---------------------------------|---------------------------------|------------
---------------------|
C|---------------------------------|---------------------------------|------------
---------------------|
C|-49--51--51--51--51--51--51--51--|-51--51--51--51--51--51--51------|-49--51--
51--51--51--51--51--51--|
C|---------------------------------|---------------------------------|------------
---------------------|
C|---------------------------------|---------------------------------|------------
---------------------|
C|---------------------------------|---------------------------------|------------
---------------------|
C|---------------------------------|---------------------------------|------------
---------------------|

C|---------------------------------|---------------------------------|------------
---------------------|
C|---------------------------------|-49--51--51--51--51--51--51--51--|-51--51--
51--51--51--51--51--51--|
C|---------------------------------|---------------------------------|------------
---------------------|
C|---------------------------------|---------------------------------|------------
---------------------|
C|---------------------------------|---------------------------------|------------
---------------------|
C|---------------------------------|---------------------------------|------------
---------------------|

C|---------------------------------|---------------------------------|------------
---------------------|
C|-49--51--51--51--51--51--51--51--|-51--51--51--51--51--51--51--51--|-51--51--
51--51--51--51--51--51--|
C|---------------------------------|---------------------------------|------------
---------------------|
C|---------------------------------|---------------------------------|------------
---------------------|
C|---------------------------------|---------------------------------|------------
---------------------|
C|---------------------------------|---------------------------------|------------
---------------------|

C|---------------------------------|---------------------------------|--------|---
------------------------------|
C|-51--51--51--51--51--51--51--51--|-51--51--51--51--51--51--51--51--|--------|-
49--51--51--51--51--51--51--51--|
C|---------------------------------|---------------------------------|--------|---
------------------------------|
C|---------------------------------|---------------------------------|--------|---
------------------------------|
C|---------------------------------|---------------------------------|--------|---
------------------------------|
C|---------------------------------|---------------------------------|--------|---
------------------------------|

C|---------------------------------|---------------------------------|------------
---------------------|
C|-51--51--51--51--51--51--51------|-49--51--51--51--51--51--51--51--|-51--51--
51--51--51--51--51------|
C|---------------------------------|---------------------------------|------------
---------------------|
C|---------------------------------|---------------------------------|------------
---------------------|
C|---------------------------------|---------------------------------|------------
---------------------|
C|---------------------------------|---------------------------------|------------
---------------------|

C|---------------------------------|---------------------------------|------------
---------------------|
C|-49--51--51--51--51--51--51--51--|-51--51--51--51--51--51--51------|-49--51--
51--51--51--51--51--51--|
C|---------------------------------|---------------------------------|------------
---------------------|
C|---------------------------------|---------------------------------|------------
---------------------|
C|---------------------------------|---------------------------------|------------
---------------------|
C|---------------------------------|---------------------------------|------------
---------------------|

C|---------------|---------------------------------|------------------------------
---|
C|---------------|-49--51--51--51--51--51--51--51--|-51--51--51--51--51--51--51--
51--|
C|---------------|---------------------------------|------------------------------
---|
C|---------------|---------------------------------|------------------------------
---|
C|---------------|---------------------------------|------------------------------
---|
C|---------------|---------------------------------|------------------------------
---|

C|---------------------------------|---------------------------------|------------
---------------------|
C|-51--51--51--51--51--51--51--51--|-51--51--51--51--51--51--51--51--|-51--51--
51--51--51--51--51--51--|
C|---------------------------------|---------------------------------|------------
---------------------|
C|---------------------------------|---------------------------------|------------
---------------------|
C|---------------------------------|---------------------------------|------------
---------------------|
C|---------------------------------|---------------------------------|------------
---------------------|

C|---------------------------------|---------------------------------|------------
---|
C|-51--51--51--51--51--51--51--51--|-51--51--51--51--51--51--51--
51--|---------------|
C|---------------------------------|---------------------------------|------------
---|
C|---------------------------------|---------------------------------|------------
---|
C|---------------------------------|---------------------------------|------------
---|
C|---------------------------------|---------------------------------|------------
---|

C|---------------------------------|---------------------------------|------------
---------------------|
C|-49--51--51--51--51--51--51--51--|-51--51--51--51--51--51--51------|-49--51--
51--51--51--51--51--51--|
C|---------------------------------|---------------------------------|------------
---------------------|
C|---------------------------------|---------------------------------|------------
---------------------|
C|---------------------------------|---------------------------------|------------
---------------------|
C|---------------------------------|---------------------------------|------------
---------------------|

C|---------------------------------|---------------------------------|------------
---------------------|
C|-51--51--51--51--51--51--51------|-49--51--51--51--51--51--51--51--|-51--51--
51--51--51--51--51------|
C|---------------------------------|---------------------------------|------------
---------------------|
C|---------------------------------|---------------------------------|------------
---------------------|
C|---------------------------------|---------------------------------|------------
---------------------|
C|---------------------------------|---------------------------------|------------
---------------------|

C|---------------------------------|--------|--------|----------------------------
-----|
C|-49--51--51--51--51--51--51--51--|--------|--------|-49--51--51--51--51--51--
51--51--|
C|---------------------------------|--------|--------|----------------------------
-----|
C|---------------------------------|--------|--------|----------------------------
-----|
C|---------------------------------|--------|--------|----------------------------
-----|
C|---------------------------------|--------|--------|----------------------------
-----|

C|---------------------------------|---------------------------------|------------
---------------------|
C|---------------------------------|-49--51--51--51--51--51--51--
51--|---------------------------------|
C|---------------------------------|---------------------------------|------------
---------------------|
C|---------------------------------|---------------------------------|------------
---------------------|
C|---------------------------------|---------------------------------|------------
---------------------|
C|---------------------------------|---------------------------------|------------
---------------------|

C|---------------------------------|---------------------------------|------------
-----------|
C|-49--51--51--51--51--51--51--51--|---------------------------------|-49--51--
51--51--------|
C|---------------------------------|---------------------------------|------------
-----------|
C|---------------------------------|---------------------------------|------------
-----------|
C|---------------------------------|---------------------------------|------------
-----------|
C|---------------------------------|---------------------------------|------------
-----------|

C|---------------------------------|---------------------------------|------------
---------------------|
C|-49--51--51--51--51--51--51--51--|-51--51--51--51--51--51--51------|-49--51--
51--51--51--51--51--51--|
C|---------------------------------|---------------------------------|------------
---------------------|
C|---------------------------------|---------------------------------|------------
---------------------|
C|---------------------------------|---------------------------------|------------
---------------------|
C|---------------------------------|---------------------------------|------------
---------------------|

C|---------------------------------|---------------------------------|------------
---------------------|
C|-51--51--51--51--51--51--51------|-49--51--51--51--51--51--51--51--|-51--51--
51--51--51--51--51------|
C|---------------------------------|---------------------------------|------------
---------------------|
C|---------------------------------|---------------------------------|------------
---------------------|
C|---------------------------------|---------------------------------|------------
---------------------|
C|---------------------------------|---------------------------------|------------
---------------------|

C|---------------------------------|--------|--------|
C|-49--51--51--51--51--51--51--51--|--------|-49-----|
C|---------------------------------|--------|--------|
C|---------------------------------|--------|--------|
C|---------------------------------|--------|--------|
C|---------------------------------|--------|--------|