Sunteți pe pagina 1din 17

title: fight is over

by: urbandub
tabbed by: craftoon
chords to use: Am-G-F-G-F
(do: Am-G-F-G-F)
When the fighting is over
Coz our mouths have just run dry
As our feelings get colder
Theres nothing to hold us now
Gave all this time just to be let down
[chorus]
(do: Am-G-F-G-F)
Explain to me
What has become of us?
With words released
We can never take them back
For all that were worth now
Not even pleading can save us
How did we end this way?
Our promises thrown away
All the years we built, broken up
See it crashing down
I have to say
Though alone in this crazy sea of faces
Its still your face I wanna know
(do: Am-G-F-G-F)
I know youll meet someone better
But would still think of me
If he cant hold you like I did
Would you run back to me?
I know this pain shall pass
Gave all this time still we couldnt last
[chorus]
(do: Am-G-F-G-F)
Explain to me
What has become of us?
With words released
We can never take them back
For all that were worth now
Not even pleading can save us
How did we end this way?
Our promises thrown away
All the years we built, broken up
See it crashing down
I have to say
Though alone in this crazy sea of faces
Its still your face I wanna know

Title: The Fight Is Over


Artist: Urbandub
Album: Under Southern Lights
Tabbed by:xEph
xephtcetera@yahoo.com
www.facebook.com/dualreality
Tuning: Drop D half step down
Legend: / - slide
h - hammer
p - pull-off
x - dead note
* - palm mute
~ - Let it ring
() - ghost note
*Pag may mali pakipost na lang, salamat!*
Intro (2 Gtrs)
Eb|--3---3---3---3---3---3---3---3----||
Bb|----3---3---3---3---3---3---3------||
Gb|-5-5-5-5-5-5-5-5-5-5-5-5-5-5-5-----||
Db|-----------------------------------||
Ab|-----------------------------------||
Db|-----------------------------------||
|
||
Eb|---------------w/effect-12~---10~--||
Bb|-----------------------------------||
Gb|-----------------------------------||
Db|-----------------------------------||
Ab|-----------------------------------||
Db|-----------------------------------||
Eb|--3---3---3--3---3---3--3---3---3--||
Bb|--------3----------3----------3----||
Gb|-5-----5-5--5-----5-5--5-----5-5---||
Db|---5-3--------5-3--------5-3-------||
Ab|-----------------------------------||
Db|-----------------------------------||
|
||
Eb|-8-10-------8-10-12~---8-10--------||
Bb|-----10~8-10-------8-10---10~8-10--||
Gb|-----------------------------------||
Db|-----------------------------------||
Ab|-----------------------------------||
Db|-----------------------------------||
Eb|-----3---3---3---------------------||
Bb|-------3---3---3~------------------||
Gb|--4-5-5-5-5-5-5--------------------||
Db|-----------------------------------||
Ab|(5)--------------------------------||
Db|-----------------------------------||
|
||

Eb|-----------------------------------||
Bb|-----------------------------------||
Gb|-7~-10~---444----------------------||
Db|----------555(Clean)---------------||
Ab|----------555----------------------||
Db|-----------------------------------||

Verse 1 (2 Gtrs)
When the fighting is over
Eb|----------------------||
Bb|----------------------||
Gb|----------------------||
Db|-xx7-----x5------3----||
Ab|-xx7-----x5------3----||
Db|-xx7-----x5------3----||
|
||
Eb|---3---------------3--||
Bb|----------------------||
Gb|-5--------------------||
Db|---------(5)----(3)---||
Ab|----------------------||
Db|----------------------||
Cuz our mouths ...run dry
Eb|----------------------||
Bb|----------------------||
Gb|----------------------||
Db|-xx7-----x5------7----||
Ab|-xx7-----x5------7----||
Db|-xx7-----x5------7----||
|
||
Eb|---3------------------||
Bb|----------------------||
Gb|-5--------------------||
Db|---------(5)----(7)---||
Ab|----------------------||
Db|----------------------||
As our feelings get colder
Eb|--------------------------||
Bb|--------------------------||
Gb|--------------------------||
Db|-xx7-----x5------3--------||
Ab|-xx7-----x5------3--------||
Db|-xx7-----x5------3--------||
|
||
Eb|---3---------------3---3--||
Bb|---------------------3----||
Gb|-5------------------5-5---||
Db|---------(5)----(3)-------||
Ab|--------------------------||
Db|--------------------------||
There's nothing to hold us now

Eb|--------------------------||
Bb|--------------------------||
Gb|--------------------------||
Db|-xx7-----x5------3--------||
Ab|-xx7-----x5------3--------||
Db|-xx7-----x5------3--------||
|
||
Eb|---3---------------3---3--||
Bb|---------------------3----||
Gb|-5------------------5-5---||
Db|---------(5)----(3)-------||
Ab|--------------------------||
Db|--------------------------||
Gave all this... down
Eb|-------------------||
Bb|-------------------||
Gb|(4444444-55555)----||
Db|-5555555-77777--3~-||
Ab|-5555555-77777--3~-||
Db|----------------3~-||
Chorus 1 (2 Gtrs)
Can you explain... us?
Eb|------3-3--3-3--3--3--||
Bb|---------3----3--3----||
Gb|-------5--5-5--5--5---||
Db|----------------------||
Ab|----------------------||
Db|----------------------||
With words... back ...even pleading...
Eb|----------------------------------------||
Bb|----------------------------------------||
Gb|----------------------------------------||
Db|---3333333333-7777777777---3-x-3--3--5--||
Ab|---3333333333-7777777777---3-x-3--3--5--||
Db|---3333333333-7777777777---3-x-3--3--5--||
|
||
Eb|----------------------------------------||
Bb|---3--3--3--3--3--3--3------------------||
Gb|----5--5--5--5--5--5--5-(repeat ? times)||
Db|-----5--5--5--5--5--5--5-(stop at F)----||
Ab|----------------------------------------||
Db|----------------------------------------||
Interlude
Eb|---------------------------------------||
Bb|---------------------------------------||
Gb|-------7-5(55)------------7------------||
Db|-----7-------------------7-7(77)-------||
Ab|-3-7----------7h8p7---3-7-------7h8p7--||
Db|---------------------------------------||
Eb|----------------------------||

Bb|----------------------------||
Gb|-------7-5(55)5-------------||
Db|-----7---------5555-33-x-3--||
Ab|-3-7----------------33-x-3--||
Db|--------------------33-x-3--||
Verse 2 (2 Gtrs)
I know you'll meet... better ...think of me?
Eb|--------------------------------------------------||
Bb|--------------------------------------------------||
Gb|--------------------------------------------------||
Db|-------------7-7----5-55-------3-33-33-3p2-22-3p2-||
Ab|-------------7------5----------3----33------------||
Db|-------------7------5----------3----33------------||
If he can't hold you like I did Would you run back to me?
Eb|--------------------------------------------------||
Bb|--------------------------------------------------||
Gb|--------------------------------------------------||
Db|-------------7-7----5-55-------3-33-33-3p2-22-3p2-||
Ab|-------------7------5----------3----33------------||
Db|-------------7------5----------3----33------------||
Yes I know this pain shall pass
Eb|-----------------------------||
Bb|-----------------------------||
Gb|-----------------------------||
Db|-----7-----------------------||
Ab|-----7-----------------------||
Db|-----7---------(5)------(3)--||
|
||
Eb|-----------------------------||
Bb|-----------------------------||
Gb|-----------------------------||
Db|----------------10-9~--------||
Ab|---------------------7-8~----||
Db|-----------------------------||
Gave all this time still we couldn't last.
Eb|-------------------------------------------||
Bb|-------------------------------------------||
Gb|--(4-4-4-4-4-4-4-4-5-5-5-5-5-5-5)----------||
Db|---5-5-5-5-5-5-5-5-7-7-7-7-7-7-7---333333~-||
Ab|---5-5-5-5-5-5-5-5-7-7-7-7-7-7-7---333333~-||
Db|-----------------------------------333333~-||
|
||
Eb|---3-2-0--------------3-2-0----------------||
Bb|--------3--3*-3*-3*-3*-----3--3*-3*-8~-10~-||
Gb|---------5--5*-5*-5*-5*-----5--5*-5*-------||
Db|----------5--5*-5*-5*--------5--5*---------||
Ab|----------(fast parts)---------------------||
Db|-------------------------------------------||
Chorus 2 (2 Gtrs)
Explain...
us

Eb|-------------------||
Bb|-------------------||
Gb|-------------------||
Db|-1010101010101010--||
Ab|-1010101010101010--||
Db|-1010101010101010--||
|
||
Eb|-10-10-10-10-10----||
Bb|--13-13-13-13-13---||
Gb|---12-12-12-12-12--||
Db|-------------------||
Ab|-------------------||
Db|-------------------||
With words... back ...even pleading...us
Eb|-----------------------------------------||
Bb|-----------------------------------------||
Gb|-----------------------------------------||
Db|---3333333333-7-x-7-7-x-7-3333333333/77--||
Ab|---3333333333-7-x-7-7-x-7-3333333333/77--||
Db|---3333333333-7-x-7-7-x-7-3333333333/77--||
|
||
Eb|-----------------------------------------||
Bb|---3--3--3--3--3--3--3-------------------||
Gb|----5--5--5--5--5--5--5-(repeat ? times)-||
Db|-----5--5--5--5--5--5--5-(stop at F)-----||
Ab|-----------------------------------------||
Db|-----------------------------------------||
Bridge
How did we...promises...crashing down
Eb|---------------------------------------||
Bb|---------------------------------------||
Gb|---------------------------------5555--||
Db|-7-x-7--10-x-10--3-3-3-3-3-3-3-3-xxxx--||
Ab|-7-x-7--10-x-10--3-3-3-3-3-3-3-3-3333--||
Db|-7-x-7--10-x-10--3-3-3-3-3-3-3-3-------||
I have to say...
...I wanna know.
Eb|-----------------------------------------||
Bb|-----------------------------------------||
Gb|-----------------------------------------||
Db|-7-x-7--10-x-10--3-x-3--3-x-3--3-x-3-----||
Ab|-7-x-7--10-x-10--3-x-3--3-x-3--3-x-3-----||
Db|-7-x-7--10-x-10--3-x-3--3-x-3--3-x-3-----||
|
||
Eb|-----------------------------------------||
Bb|----------------13-13-13-13------13-12---||
Gb|-----------------10-10-10-10----9-----9--||
Db|----------------------------9-10---------||
Ab|-----------------------------------------||
Db|-----------------------------------------||
Solo

Eb|--------------------------------------||
Bb|--------------------------------------||
Gb|--------------------------------------||
Db|-7-x-7--10-x-10--3-x-3-3-x-3----------||
Ab|-7-x-7--10-x-10--3-x-3-3-x-3----------||
Db|-7-x-7--10-x-10--3-x-3-3-x-3----------||
|
||
Eb|--------------------------------------||
Bb|-13-12----10------------------13-12---||
Gb|------9--12---9-----12--9----------9--||
Db|------------12---9-10-12-9-10---------||
Ab|-----------------------------10-------||
Db|--------------------------------------||
Eb|--------------------------------------||
Bb|--------------------------------------||
Gb|--------------------------------------||
Db|-7-x-7--10-x-10--3-x-3-3-x-3----------||
Ab|-7-x-7--10-x-10--3-x-3-3-x-3----------||
Db|-7-x-7--10-x-10--3-x-3-3-x-3----------||
|
||
Eb|---------------!---15------!(repeat 5x)|
Bb|-13-12----10---!1213-121315!-----------|
Gb|------9--12---9-----------------------||
Db|------------12------------------------||
Ab|--------------------------------------||
Db|--------------------------------------||
Chorus 3
Explain...
us
Eb|-------------------||
Bb|-------------------||
Gb|-------------------||
Db|-1010101010101010--||
Ab|-1010101010101010--||
Db|-1010101010101010--||
|
||
Eb|-10-10-10-10-10----||
Bb|--13-13-13-13-13---||
Gb|---12-12-12-12-12--||
Db|-------------------||
Ab|-------------------||
Db|-------------------||
With words... back ...
not even pleading...save us now
Eb|------------------------------------------------||
Bb|------------------------------------------------||
Gb|-------------!repeat this part 2x!--------------||
Db|---3333333333!77-10-9--------9910!-3-x-3-3-x-5--||
Ab|---3333333333!77-------101012----!-3-x-3-3-x-5--||
Db|---3333333333!77-----77----------!-3-x-3-3-x-5--||
|
||
Eb|--------------10-10-10--------------------------||
Bb|---3--3--3--3--13-13-13-------------------------||
Gb|----5--5--5--5--12-12-12(repeat ? times)--------||
Db|-----5--5--5--5---------------------------------||

Ab|------------------------------------------------||
Db|------------------------------------------------||
Outro
The fighting is over...is over The fighting is over
Eb|---------------------------------------------||
Bb|---------------------------------------------||
Gb|---------------------------------------------||
Db|-1010101010101010-333333333333-777777777777--||
Ab|-1010101010101010-333333333333-777777777777--||
Db|-1010101010101010-333333333333-777777777777--||
|
Eb|---------------------------------------------||
Bb|------13-12----------------------------------||
Gb|----------12-12h14p12----10-9----------------||
Db|-----------------------------10h12-----------||
Ab|---------------------------------------------||
Db|---------------------------------------------||
...is over now
Eb|---------------||
Bb|---------------||
Gb|---------------||
Db|-333333333333--||
Ab|-333333333333--||
Db|-333333333333--||
Owoh... Owoh...
Eb|-------------------------------||
Bb|-------------------------------||
Gb|---------------------------4~--||
Db|-10--10--3--3--7--7--3--3--2~--||
Ab|-10--10--3--3--7--7--3--3--0~--||
Db|-10--10--3--3--7--7--3--3------||
\end/

EVIDENCE

EM7
Time has a way of healing or so they say
Gm
So why am I still left here to cry?
EM7
Caught in these waves of emotions
As people stare
Gm
EM7
I find there's no real place for me to hide
C#m
Well, I've been trying in vain
C#m
Was only fooling myself
With each passing day
EM7
The pain still stays the same.
Chorus
B
EM7
Caught you in the arms of another
I've been dying everyday since then
C#m
EM7
Caught you in the arms of another
I found out about you.
EM7
Gm
verseEM7
What more is that you need?
Right now, clearly it's not me
C#m
With every minute that I gave to you
The punches that I took from you
Why was there no warning love?
VerseEM7
What more is it that you need?
Right now, clearly it's not me
C#m
Despite everything i gave to you
Excuse if I'm surprised
With the moment that I found out
We were through.
G#m
B
When everything seemed all right
E
You turn and break my heart
E
Didn't I deserve your love?
G#m
B
It kills me inside to think of his arms
E
Wrapped around you now
E
Is he a better lover than I?

Title: Evidence
Artist: Urbandub
Album: Under Southern Lights (2007)
Tuning: Eflat half step down.
*This is a response to my previous post. This is a correction
100% sure that this tab is 98% accurate.
Intro
[1]
d#|--0-----------0-----------------------|
A#|--7-----------3-----------------------|
F#|--8-----------3-----------------------|
C#|--6-----------2-----------------------|
G#|--7-----------0-----------------------|
D#|--0-----------3-----------------------|
Verse
[1]
d#|--0-----------0---------0-------------|
A#|--7-----------3---------7-------------|
F#|--8-----------3---------8-------------|
C#|--6-----------2---------6-------------|
G#|--7-----------0---------7-------------|
D#|--0-----------3---------0-------------|
*same as [1]
Refrain
d#|--------------------------------------|
A#|---0----------------------------------|
F#|---9------8---------------------------|
C#|---9------9---------------------------|
G#|---x------7---------------------------|
D#|---9------x---------------------------|
*guitar 2 is a delay pluck effect of guitar 1
i can't imagine posting how the tab goes into this part.
Chorus
[1]
d#|--------0----4----7-------------------|
A#|--------7----5----x-------------------|
F#|--------8----4----9-------------------|
C#|---9----9----6----9-------------------|
G#|---9----9----4----7-------------------|
D#|---7----0---------0-------------------|
d#|------9-----9-----9-----9-----9-----9-------7-----7-----7-------|
A#|----7---7-----7-----7-----7-----7-------7-----7-----7-----7-----|
F#|--8-------8-----8-----8-----8-----8---8---8-----8-----8-----8---|
C#|----------------------------------------------------------------|

G#|----------------------------------------------------------------|
D#|----------------------------------------------------------------|
Note: have it in timing.
Adlib
[1]
d#|--0-----------0-----------------------|
A#|--7-----------3-----------------------|
F#|--8-----------3-----------------------|
C#|--6-----------2-----------------------|
G#|--7-----------0-----------------------|
D#|--0-----------3-----------------------|
Verse 2
[1]
d#|--------------------------------------|
A#|-------0-------0----------------------|
F#|---8---9---8---9----------------------|
C#|---9---9---9---9----------------------|
G#|---7---x---7---x----------------------|
D#|---x---9---x---9----------------------|
[2]
(4x)
(2x)
(2x)
d#|-------------|-------12-11-|-------9-7------|
A#|-------------|--9-12-------|--9-12----------|
F#|--------9-8--|-------------|----------------|
C#|---9-11------|-------------|----------------|
G#|-------------|-------------|----------------|
D#|-------------|-------------|----------------|
Repeat Chorus
Bridge
[1]
d#|------------0------------------------|
A#|------------7------------------------|
F#|------------8------------------------|
C#|---6----9---9------------------------|
G#|---6----9---9------------------------|
D#|---4----7---0------------------------|
d#|----------------9h11--------------------------|
A#|---------7cont.------7cont.(break)/9----------|
F#|--8cont.--------------------------------------|
C#|----------------------------------------------|
G#|----------------------------------------------|
D#|----------------------------------------------|
Instrumental
[1]
d#|--0-----------0-------0----------------|
A#|--7-----------3-------7----------------|

F#|--8-----------3-------8----------------|
C#|--6-----------2-------6----------------|
G#|--7-----------0-------7----------------|
D#|--0-----------3-------0----------------|
d#|-----------------------------------------------|
A#|-----------------------------------------------|
F#|---6/8-6--4/6-4-------4-6--6b8-6(5)4-6-4~------|
C#|----------------4(5)6--------------------6-----|
G#|-----------------------------------------------|
D#|-----------------------------------------------|
d#|------------------------------------------------|
A#|-------------------------14b16-14(13)12-14-12~~-|
F#|--3-5-3----------4------------------------------|
C#|-----------4(5)6---6~---------------------------|
G#|---------4--------------------------------------|
D#|------------------------------------------------|
Repeat refrain
Interlude
[1]
d#|---11-----11-----11-----11--------11-----14-----14-----14---------|
A#|-----12-----12-----12-----12---12---12-----12-----12-----12---12--|
F#|-------13-----13-----13-----13--------13-----13-----13-----13-----|
(2x)
C#|------------------------------------------------------------------|
G#|------------------------------------------------------------------|
D#|------------------------------------------------------------------|
d#|------9-----9-----9-----9-----9-----9-------7-----7-----7-------|
A#|----7---7-----7-----7-----7-----7-------7-----7-----7-----7-----|
F#|--8-------8-----8-----8-----8-----8---8---8-----8-----8-----8---|
C#|----------------------------------------------------------------|
G#|----------------------------------------------------------------|
d#|------9-----9-----9-----9-----9-----9-------7-----7-----7-------|
A#|----7---7-----7-----7-----7-----7-------7-----7-----7-----7-----|
F#|--8-------8-----8-----8-----8-----8---8---8-----8-----8-----8---|
C#|----------------------------------------------------------------|
G#|----------------------------------------------------------------|
D#|----------------------------------------------------------------|
Note: play [2] when [1] plays at the d#|----14------| part
A#|------12----|
F#|--------13--|
Chorus
[1]
d#|--------0----4----7-------------------|
A#|--------7----5----x-------------------|
F#|--------8----4----9-------------------|

C#|---9----9----6----9-------------------|
G#|---9----9----4----7-------------------|
D#|---7----0---------0-------------------|
[2]
d#|------9-----9-----9-----9-----9-----9-------7-----7-----7-------|
A#|----7---7-----7-----7-----7-----7-------7-----7-----7-----7-----|
F#|--8-------8-----8-----8-----8-----8---8---8-----8-----8-----8---|
(2x)
C#|----------------------------------------------------------------|
G#|----------------------------------------------------------------|
D#|----------------------------------------------------------------|
[2]
(4x)
(4x)
d#|-------------|-------12-11-|-------9-7------|
A#|-------------|--9-12-------|--9-12----------|
F#|--------9-8--|-------------|----------------|
C#|---9-11------|-------------|----------------|
G#|-------------|-------------|----------------|
D#|-------------|-------------|----------------|
Outro
d#|--0-----------0-------0----------------|
A#|--7-----------3-------7----------------|
F#|--8-----------3-------8----------------|
C#|--6-----------2-------6----------------|
G#|--7-----------0-------7----------------|
D#|--0-----------3-------0----------------|

Title: First of Summer


Artist: Urbandub
Album: Embrace
Instrument: 6 String Guitar
Tabbed by: kristian emilj l. pang (kempot_55@yahoo.com)
Tuning: Drop D tapos half step down(ganto lhat ng kanta ng urbandub)
PLS basahin nyo muna ung tuning bago nyo itry...
sa tingin ko at least 97% correct ito, dlang ako xur sa ibang lead kac kinapa
ko lng
anyway, eto na..
Intro
Guitar 1
Eb|-----5-------5---------||
Bb|---7-----7-----7-------||
Gb|-----------------------|| 8x
Db|--5--------5-----------||
Ab|-----------------------||
Db|-----------------------||
Guitar 2
Eb|-----------------------------------5-5-5--5-5-5-5---7-7-7--7-7-7-7--||
Bb|--7-7-7--7-7-7-7---5-5-5--5-5-5-5--0-0-0--0-0-0-0---0-0-0--0-0-0-0--||
Gb|--7-7-7--7-7-7-7---7-7-7--7-7-7-7-----------------------------------|| 2x
Db|--------------------------------------------------------------------||
Ab|--------------------------------------------------------------------||
Db|--------------------------------------------------------------------||
Chorus
Parked Car...
Guitar 1
Eb|--5-5-5-5-5----------||
Bb|--7-7-7-7-7----------||
Gb|--7-7-7-7-7----------||
Db|--5-5-5-5-5----------||
Ab|--5-5-5-5-5----------||
Db|--5-5-5-5-5----------||

Guitar 2
Eb|----------------------------------||
Bb|----------------------------------||
Gb|-7-7-7/9--9/11--7-7-9-11-11-11----|| 2x
Db|-x-x-x-x--x-x---x-x-x-x--x--x-----||
Ab|-5-5-5/7--7/9---5-5-7-9--9--9-----||
Db|----------------------------------||

Our song plays on


Guitar 2
Eb|-----------------------||
Bb|-----------------------||
Gb|-----------------------||
Db|--7-7-7-7-7-7-7--------||
Ab|-----------------------||
Db|-----------------------||
The radio...
Guitar 1
Eb|--5-5-5-5-5----------||
---||
Bb|--7-7-7-7-7----------||
---||
Gb|--7-7-7-7-7----------||
777777777--||

Guitar 2
Eb|-------------------------------------------Bb|-------------------------------------------Gb|-7-7-7/9--9/11-777777777---7-7-9-11-

Db|--5-5-5-5-5----------||
xxxxxxxxx--||
Ab|--5-5-5-5-5----------||
555555555--||
Db|--5-5-5-5-5----------||
---||

Db|-x-x-x-x--x-x--xxxxxxxxx---x-x-x-x-Ab|-5-5-5/7--7/9--555555555---5-5-7-9-Db|--------------------------------------------

Verse1
we're livin it up...
Guitar 1
Eb|---------------------||
Bb|---------------------||
Gb|---------------------||
Db|-9~--9-9~------------||
Ab|-9~--9-9~------------||
Db|-9~--9-9~------------||

Guitar 2
Eb|----------------------||
Bb|-------10-12-10-------||
Gb|--9-11-----------11-9-||
Db|----------------------||
Ab|----------------------||
Db|----------------------||

I wish this lasts forever..


Guitar 1
Eb|---------------------||
Bb|---------------------||
Gb|---------------------||
Db|-5~--5-5~------------||
Ab|-5~--5-5~------------||
Db|-5~--5-5~------------||

Guitar 2
Eb|---------------------------||
Bb|---------10-12-12-12-12-12-||
Gb|--9-11-9-------------------||
Db|---------------------------||
Ab|---------------------------||
Db|---------------------------||

Chorus
Parked Car...
Guitar 1
Eb|--5-5-5-5-5----------||
Bb|--7-7-7-7-7----------||
Gb|--7-7-7-7-7----------||
Db|--5-5-5-5-5----------||

Guitar 2
Eb|----------------------------------||
Bb|----------------------------------||
Gb|-7-7-7/9--9/11--7-7-9-11-11-11----|| 2x
Db|-x-x-x-x--x-x---x-x-x-x--x--x-----||

Ab|--5-5-5-5-5----------||
Db|--5-5-5-5-5----------||

Ab|-5-5-5/7--7/9---5-5-7-9--9--9-----||
Db|----------------------------------||

Our song...
Guitar 1
Eb|--0-0-0-0-0--------||
Bb|--7-7-7-7-7--------||
Gb|--7-7-7-7-7--------||
Db|--0-0-0-0-0--------||
Ab|--0-0-0-0-0--------||
Db|--0-0-0-0-0--------||
The radio...
Guitar 1
Eb|--5-5-5-5-5----------||
---||
Bb|--7-7-7-7-7----------||
---||
Gb|--7-7-7-7-7----------||
777777777--||
Db|--5-5-5-5-5----------||
xxxxxxxxx--||

Guitar 2
Eb|----------------------------||
Bb|----------------------------||
Gb|--9999-1212-1414--999999----||
Db|--xxxx--x-x--x-x--xxxxxx----||
Ab|--7777-1010-1212--777777----||
Db|----------------------------||
Guitar 2
Eb|-------------------------------------------Bb|-------------------------------------------Gb|-7-7-7/9--9/11-777777777---7-7-9-11Db|-x-x-x-x--x-x--xxxxxxxxx---x-x-x-x--

Ab|--5-5-5-5-5----------||
555555555--||
Db|--5-5-5-5-5----------||
---||

Ab|-5-5-5/7--7/9--555555555---5-5-7-9-Db|--------------------------------------------

Verse2
Guitar 1
Eb|----------------||
Bb|----------------||
Gb|----------------||
Db|-9~--5~---------||
Ab|-9~--5~---------||
Db|-9~--5~---------||
We're givin it up...
Guitar 2
Eb|---------------------||
Bb|---------------------||
Gb|---------------------|| 4x
Db|------11-9----11-9---||
Ab|----9----------------||
Db|--9---------9--------||
Arms ways tonight
Guitar 1
Eb|---------------------||
Bb|---------------------||
Gb|---------------------||
Db|-5~-------------5/9~-||
Ab|-5~-------------5/9~-||
Db|-5~-------------5/9~-||

Guitar 2
Eb|------------------------------------||
Bb|-------10----12-10------------------||
Gb|--11-9----11-------11-9-11--7-9-7-6-||
Db|------------------------------------||
Ab|------------------------------------||
Db|------------------------------------||

We're givin it up...


Guitar 1
Eb|------------------------------||
Bb|------------------------------||
Gb|-111111111111-14141414-99999--||
Db|-x-x-x-x-x-x---x-x-x-x-xxxxx--||
Ab|-9-9-9-9-9-9--12121212-77777--||
Db|------------------------------||
Arms ways tonight
Guitar 1
Eb|---------------------||
Bb|---------------------||
Gb|---------------------||
Db|-5~-------------5/9~-||
Ab|-5~-------------5/9~-||
Db|-5~-------------5/9~-||

Guitar 2
Eb|---------------------||
Bb|---------------------||
Gb|---------------------|| 4x
Db|------11-9----11-9---||
Ab|----9----------------||
Db|--9---------9--------||

Guitar 2
Eb|-------------------------------------||
Bb|-------10----12-10-------------------||
Gb|--11-9----11-------11-9-11--7-9-7----||
Db|----------------------------------7~-||
Ab|----------------------------------7~-||
Db|----------------------------------7~-||

Bridge
Guitar 1
Guitar 2
Eb|--0-0-0-0-0--5-5-5-5-5--||
Eb|----------------------------||
Bb|--7-7-7-7-7--7-7-7-7-7--||
Bb|----------------------------||
Gb|--7-7-7-7-7--7-7-7-7-7--||
Gb|--1414-1211-9/7-777777------||
Db|--0-0-0-0-0--5-5-5-5-5--||
Db|---x-x--x-x-x-x-xxxxxx------||
Ab|--0-0-0-0-0--5-5-5-5-5--||
Ab|--1212-10-9-7/5-555555------||
Db|--0-0-0-0-0--5-5-5-5-5--||
Db|----------------------------||
Guitar 1
Guitar 2
Eb|---------------------||Eb|--------------------------------------------||
Bb|---------------------||Bb|--------------------------------------------||
Gb|---------------------||Gb|--------------------------------------------||
Db|-9-9--9-9---999999---||Db|--12-11--------12-11------12-11-------------||
Ab|-9-9--9-9---999999---||Ab|--------9-12----------9----------9-10-9-14\-||
Db|-9-9--9-9---999999---||Db|--------------------------------------------||
Anywhere with you..
Guitar 1
Eb|-5~---5~-------------||
Bb|-7~---7~-------------||
Gb|-7~---7~-------------||3x
Db|-5~---5~--9--7-------||
Ab|-5~---5~--9--7-------||
Db|-5~---5~--9--7-------||

Guitar 2 w/effects ung nag e-echo


Eb|--5-------5--------5--5--||
Bb|--7-------7--------7--5--||
Gb|--7-7h9---7-7h9----7--7--|| 2x
Db|-------------------------||
Ab|-------------------------||
Db|-------------------------||

Chorus
Parked car...
Guitar 1
Eb|--------5~---5~-----||
Bb|--------7~---7~-----||
Gb|--------7~---7~-----||
Db|-55555--5~---5~-----||
Ab|-55555--5~---5~-----||
Db|-55555--5~---5~-----||
Our song plays on
Guitar 1(hanggang matapos)
Eb|-----------------||
Bb|-----------------||
Gb|-----------------||
Db|-0~--5~--0~--5~--||
Ab|-0~--5~--0~--5~--||
Db|-0~--5~--0~--5~--||

Guitar 2
Eb|----------------------------------||
Bb|-------------1212-11--9--12-11-9--||
Gb|--------------x-x--x--x---x--x-x--||
Db|-------------1010--9--7--10--9-7--||
Ab|----------------------------------||
Db|----------------------------------||

Guitar 2(right before ending)


Eb|--10-10-9---9--9h10-------||
Bb|--------------------------||
Gb|----------11-11-----------|| 2x
Db|--------------------------||
Ab|--------------------------||
Db|--------------------------||