Sunteți pe pagina 1din 7

Rude - Magic!

Fingerstyle Guitar Arrangement by Ralph Jay Triumfo


Video cover link: https://www.youtube.com/watch?v=7b4W6KLaM_8
Youtube Channel: https://www.youtube.com/user/ralphjay14
Blog: http://ralphjaytriumfo.blogspot.com
Standard Tuning
Capo on 1st Fret
1st Verse
T
T
T
T
|--------------------------------------------------------|--------1--1--0--------1--1--0--------------------------|-----2--2--2-----2--2--2--2-----2-----2-----------0--2--|-----3-----------0-----------------0--0--2--2--3--2-----|--------------------------------3--------0--------------|--1--------------3--------------------------------------T
T
T
T
|--------------------------------------------------------|--------1--1--0--------1--1--0--------------------------|-----2--2--2-----2--2--2--2-----2-----2-----------0--2--|-----3-----------0-----------------0--0--2--2--3--2-----|--------------------------------3--------0--------------|--1--------------3--------------------------------------T
T
T
T
|--------1--1--0--------0--1--0--------------------0--1--|--------1--1-----3--3--3--3--3--1-----1--1--1--3--1-----|-----2--2--------0--0--0--------0--0--0--0--------0-----|-----3--------------------------------------------------|--------------------------------3--------0--------------|--1--------------3--------------------------------------T
T
T
T
|--------1--1--0--------0--1--0-------------------------|--------1--1-----3--3--3--3--3--1-----1--1-----1-------|-----2--2--------0--0--0--------0--0--0--0--0--0-------|---3---------------------------------------------------|--------------------------------3--------0-------------|-----------------3--------------------------------------

Refrain
T
T
T
T
|-------------------------------------------------------|---1-1-1-1-1-0-0-0-0------------------------------0----|---2-2-2-2-2-2-2-2-2-2-2-2-0-0-2---0-0-0-2---0--2------|-----------3---------0-0-0-------2-----2---2-2--2------|-----------------------------3---2-----0---------------|---1---------------3-----------------------------------T
T
T
T
|-------------------------------------------------------|---1-1-1-1-1-0-0-0-0---------------------1-3-----------|---2-2-2-2-2-2-2-2-2-2-2-2-0-0-2---0-0-2-2-------------|-----------3---------0-0-0-------2---2-----------------|-----------------------------3---2---0-----------------|---1---------------3-----------------------------------Chorus
T
T
T
T
|--------3--3--3--3--------0--------------3--3--3--3--------0--------|--------1--1--1--1--1--1--0--3--1--------1--1--1--1--1--1--1--3--1--|--------2-----------------0--------------0-----------0--0--0--------|--------------------------------------2-----------------------------|-----3-----------------------------3-----------------0--------------|--1-----------------3-----------------------------------------------T
T
T
T
|--------3--3--3--3--------0-----------------------------------------|--------1--1--1--1--1--1--0--3--1-------1--1--1--1--0--1--1--0--1--1|-----2--2-----------0-----0-------------0--0--0--0--0-----------0--0|--3----------------------------------2--------------------------2---|-----------------------------------3----------------0---------------|--------------------3-----------------------------------------------T
T
T
T
|------0------------------------0-----------------------|---3-----1-----1-1-1-0-1-1--3-----1-----1-1-1-0-1-1----|---2--------0--0-0-0-0-0-0--0--------0--0-0-0-0-0-0----|---3--------3------------------------2-----------------|----------------------------3-----------0--------------|---------------3----------------------------------------

T
T
T
T
|------0--------------------------3-3-3-3---------------|---3-----1-----1-1-1-0-1-1-------1-1-1-1--1-1-1--------|---2--------0--0-0-0-0-0-0-------0--------0-0-0--------|---3--------3-----------------2---------------2--------|----------------------------3-------------0------------|---------------3---------------------------------------T
T
T
T
|---0---------------------3-3-3-3---------------|---------3--1-----0------1-1-1-1--1-1-1--------|------2--2--0-----0------0--------0-0-0--------|---3-----3-----0--0----2--------------2--------|---------------------3------------0------------|------------3----------------------------------2nd Verse
T
T
T
T
|--------------------------------------------------------|--------1--1--0--------1--1--0--------------------------|-----2--2--2-----2--2--2--2-----2-----2-----------0--2--|-----3-----------0-----------------0--0--2--2--3--2-----|--------------------------------3--------0--------------|--1--------------3--------------------------------------T
T
T
T
|--------------------------------------------------------|--------1--1--0--------1--1--0--------------------------|-----2--2--2-----2--2--2--2-----2-----2-----------0--2--|-----3-----------0-----------------0--0--2--2--3--2-----|--------------------------------3--------0--------------|--1--------------3--------------------------------------T
T
T
T
|-----------1--1--1--1--0----------0--0--0--0--0-----1--1--0---|--------1--1--1--1--------3-------1--------------1-----1-----1|--------2-----------------0-------0-----------0--------0------|--------3-----------------0----2------------------------------|-----3-----------------------3----------------0---------------|--1-----------------3------------------------------------------

T
T
T
T
|--------1--1--1--1--0----------0--0--0--0--0-----1--1--0---|--------1--1--1--------3-------1--------------1-----1------|--------2--------------0-------0-----------0--------0------|--------3--------------0----2------------------------------|-----3--------------------3----------------0---------------|--1--------------3-----------------------------------------Refrain
T
T
T
T
|-------------------------------------------------------|---1-1-1-1-1-0-0-0-0------------------------------0----|---2-2-2-2-2-2-2-2-2-2-2-2-0-0-2---0-0-0-2---0--2------|-----------3---------0-0-0-------2-----2---2-2--2------|-----------------------------3---2-----0---------------|---1---------------3-----------------------------------T
T
T
T
|-------------------------------------------------------|---1-1-1-1-1-0-0-0-0---------------------1-3-----------|---2-2-2-2-2-2-2-2-2-2-2-2-0-0-2---0-0-2-2-------------|-----------3---------0-0-0-------2---2-----------------|-----------------------------3---2---0-----------------|---1---------------3-----------------------------------Chorus
T
T
T
T
|--------3--3--3--3--------0--------------3--3--3--3--------0--------|--------1--1--1--1--1--1--0--3--1--------1--1--1--1--1--1--1--3--1--|--------2-----------------0--------------0-----------0--0--0--------|--------------------------------------2-----------------------------|-----3-----------------------------3-----------------0--------------|--1-----------------3-----------------------------------------------T
T
T
T
|--------3--3--3--3--------0-----------------------------------------|--------1--1--1--1--1--1--0--3--1-------1--1--1--1--0--1--1--0--1--1|-----2--2-----------0-----0-------------0--0--0--0--0-----------0--0|--3----------------------------------2--------------------------2---|-----------------------------------3----------------0---------------|--------------------3------------------------------------------------

T
T
T
T
|------0------------------------0-----------------------|---3-----1-----1-1-1-0-1-1--3-----1-----1-1-1-0-1-1----|---2--------0--0-0-0-0-0-0--0--------0--0-0-0-0-0-0----|---3--------3------------------------2-----------------|----------------------------3-----------0--------------|---------------3---------------------------------------T
T
T
T
|------0--------------------------3-3-3-3---------------|---3-----1-----1-1-1-0-1-1-------1-1-1-1--1-1-1--------|---2--------0--0-0-0-0-0-0-------0--------0-0-0--------|---3--------3-----------------2---------------2--------|----------------------------3-------------0------------|---------------3---------------------------------------T
T
T
T
|---0---------------------3-3-3-3---------------|---------3--1-----0------1-1-1-1--1-1-1--------|------2--2--0-----0------0--------0-0-0--------|---3-----3-----0--0----2--------------2--------|---------------------3------------0------------|------------3----------------------------------T
T
T
T
|---0---------------------3-3-3-3---------------|---------3--1-----0------1-1-1-1--1-1-1--------|------2--2--0-----0------0--------0-0-0--------|---3-----3-----0--0----2--------------2--------|---------------------3------------0------------|------------3----------------------------------Adlib
T
T
T
T
|--------3-----------------------------------------3-1-0-----|--1-3-1-----1-1-3-1-----1-----------------0-1-0---------1-1-|----------2-2-------2---2-----0-2-----0h2-0-----0-------0---|--------3---3---------0-0-0-2-----0h2-------------------2---|--------------------------------3-----------------0---------|--------------------3----------------------------------------

T
T
T
|--------3--3--3--3--------0--------------------8-|--------1--1--1--1--1--1--0--3--1-------1------5-|-----2--2-----------0-----0-------------0------5-|--3----------------------------------2--2------7-|-----------------------------------3-----------0-|--------------------3----------------------------Refrain
T
T
T
T
|-------------------------------------------------------|---1-1-1-1-1-0-0-0-0------------------------------0----|---2-2-2-2-2-2-2-2-2-2-2-2-0-0-2---0-0-0-2---0--2------|-----------3---------0-0-0-------2-----2---2-2--2------|-----------------------------3---2-----0---------------|---1---------------3-----------------------------------T
T
T
T
|-------------------------------------------------------|---1-1-1-1-1-0-0-0-0---------------------1-3-----------|---2-2-2-2-2-2-2-2-2-2-2-2-0-0-2---0-0-2-2-------------|-----------3---------0-0-0-------2---2-----------------|-----------------------------3---2---0-----------------|---1---------------3-----------------------------------Chorus
T
T
T
T
|--------3--3--3--3--------0--------------3--3--3--3--------0--------|--------1--1--1--1--1--1--0--3--1--------1--1--1--1--1--1--1--3--1--|--------2-----------------0--------------0-----------0--0--0--------|--------------------------------------2-----------------------------|-----3-----------------------------3-----------------0--------------|--1-----------------3-----------------------------------------------T
T
T
T
|--------3--3--3--3--------0-----------------------------------------|--------1--1--1--1--1--1--0--3--1-------1--1--1--1--0--1--1--0--1--1|-----2--2-----------0-----0-------------0--0--0--0--0-----------0--0|--3----------------------------------2--------------------------2---|-----------------------------------3----------------0---------------|--------------------3------------------------------------------------

T
T
T
T
|------0------------------------0-----------------------|---3-----1-----1-1-1-0-1-1--3-----1-----1-1-1-0-1-1----|---2--------0--0-0-0-0-0-0--0--------0--0-0-0-0-0-0----|---3--------3------------------------2-----------------|----------------------------3-----------0--------------|---------------3---------------------------------------T
T
T
T
|------0--------------------------3-3-3-3---------------|---3-----1-----1-1-1-0-1-1-------1-1-1-1--1-1-1--------|---2--------0--0-0-0-0-0-0-------0--------0-0-0--------|---3--------3-----------------2---------------2--------|----------------------------3-------------0------------|---------------3---------------------------------------T
T
T
T
|---0---------------------3-3-3-3---------------|---------3--1-----0------1-1-1-1--1-1-1--------|------2--2--0-----0------0--------0-0-0--------|---3-----3-----0--0----2--------------2--------|---------------------3------------0------------|------------3----------------------------------T
T
T
|---0---------------------3-3-3-3---------------|---------3--1-----0------1-1-1-1--1-1-0h1~-----|------2--2--0-----0------0--------0-0----------|---3-----3-----0--0----2-----------------------|---------------------3------------0------------|------------3----------------------------------End.
Dont forget to subscribe on my
channel! Thank you!