Sunteți pe pagina 1din 26

Capo 3rd Fret

Intro:
e|2--------2------|2--------------0|
B|----3--------3--|----3--------3--|
G|--2---2----2---2|--2---2--0-3----|
D|----------------|----------------|
A|----------------|----------------|
E|----------------|----------------|

X2

Verse:
D
Bm
A heart thats full up like a landfill,
Em
A job that slowly kills you,
A
Asus4
D (*play intro for D)
Bruises that wont heal.
D
You look so tired, unhappy,
Bm
Bring down the Government,
Em
A
Asus4
D *
They dont, they dont speak for us.
D
Ill take a quiet life,
Bm
A handshake of carbon monoxide,
Chorus:
Em
A
Asus4
With no alarms and no surprises
Em
A
Asus4
No alarms and no surprises
Em
A
Asus4
No alarms and no surprises
D *
D *
Silence...... Silence
Bridge:
D
This is my final fit
Bm
My final bellyache
Chorus:
Em
A
Asus4
With no alarms and no surprises
Em
A
Asus4
No alarms and no surprises
Em

Asus4

No alarms and no surprises


D *
Please
Instrumental bit (kinda hard to work out but sounds ok :-p )
A
Bbm
A
Bbm
Em
Bbm
e|-0--------------|-0--------------|----------------|
B|-2---------3----|-2---------3----|--0-------3-----|
G|-2---------3----|-2---------3----|--0-------3-----|
D|-2---------0----|-2---------0----|--2-------0-----|
A|-0---------x----|-0---------x----|--2-------x-----|
E|-----------3----|-----------3----|--0-------3-----|
D *
e|2--------2------|2--------------0|
B|----3--------3--|----3--------3--|
G|--2---2----2---2|--2---2--0-3----|
D|----------------|----------------|
A|----------------|----------------|
E|----------------|----------------|
Bridge:
D
Such a pretty house,
Bm
And such a pretty garden
Chorus:
Em
A
Asus4
With no alarms and no surprises
Em
A
Asus4
No alarms and no surprises
Em
A
Asus4
No alarms and no surprises
Please
e|2--------2------|2--------------0|
B|----3--------3--|----3--------3--|
G|--2---2----2---2|--2---2--0-3----|
D|----------------|----------------|
A|----------------|----------------|
E|----------------|----------------|
D (strum once to finish)
e|-2--------------|
B|-3--------------|
G|-2--------------|
D|-0--------------|
A|----------------|
E|----------------|

X2

THE BENDS
--------* This album tab has been done so for the use of acoustic (rhythm) guitar and so
is not 100%

accurate. Some songs (such as High and Dry) have also been simplified for
easier usage.
1.
2.
3.
4.
5.
6.
7.
8.
9.
10.
11.
12.

Planet Telex
The Bends
High And Dry
Fake Plastic Trees
Bones
(Nice Dream)
Just
My Iron Lung
Bullet Proof..I Wish I Was
Black Star
Sulk
Street Spirit (Fade Out)

=================================================================================
==========
1. PLANET TELEX
--------------(CAPO ON 2ND)
D (xx0232)
G (32000x)
G/C (330033)
Gm (355333)
Asus4 (x02230)
A (x02220)
Am (xo2210)
G/A (x5543x)
Gmaj9 (3x002x)
G5 (3x003x)
Intro:

VERSE 1:

VERSE 2:

| D

| G/C

Asus4

Asus4

Gm | D

| G/C

Gm |

Am
A
Asus4
A
you can force it but it will not come
Am
A
G/A Gmaj9 G5 Gmaj9
you can taste it but it will not form

Am
A
Asus4
A
you can crush it but it's always here
Am
A
G/A Gmaj9 G5
you can crush it but it's always here
Gmaj9
G/A Gmaj9 G5 Gmaj9
chasing me home,
saying

D
COURUS 1:

Dmaj7
D7
Dmaj7
everything is
D
Dmaj7
D7
Dmaj7
everyone is
broken

broken

VERSE 2:

VERSE 4:

Asus4

Am
A
Asus4
A
you can force it but it will stay stung
Am
A
G/A Gmaj9 G5 Gmaj9
you can crush it as dry as a bone

Asus4

Am
A
Asus4
A
you can walk it home straight from school
Am
A
G/A Gmaj9 G5
you can kiss it you can break all the rules
Gmaj9
G/A G5 Gmaj9
all of the rules,
but still

D
COURUS 2:

Dmaj7
D7
Dmaj7
everything is
broken
D
Dmaj7
D7
Dmaj7
everyone is
broken
D
Dmaj7
D7
Dmaj7
everyone is,
everyone is broken
D
Dmaj7
D7
Dmaj7
everyone is,
everything is broken

D
OUTRO:

Gm
D
G
Why can't you forget
G
D
G
G/C
why can't we forget
G
D
G
G/C
Gm
why can't you forget
| D

G/C

| G/C

Gm | D

| G/C

G/C

Gm | repeat to fade

=================================================================================
==========

2. THE BENDS
-----------D (xx0232)
Cadd9 (x32030)
G/B (x20033)
Em (022000)
G (320003)
C (x32010)
A (0x2220)
Bb (x13331)

INTRO:

| D

| Cadd9

G/B | Cadd9

| D

| Cadd9

G/B | Cadd9

| D
Oh____
| D
Oh____

| Cadd9

G/B | Cadd9

| Cadd9

G/B | Cadd9

Em
VERSE 1:
weird

G
where do we go from here? the words are coming out all

C
Cadd9
C
where are you now when I need
you?
Em
G
C
alone on an aeroplane, falling asleep against the window pane
Cadd9
C
my blood will thick - en

LINK:

| A

Em
VERSE 2:
pain

| A

| C

| Bb

G
I need to watch myself again to hide all the dirt and

C
Cadd9
C
'Cos I'd be scared that there's nothing underneath
Em
G
and who are my real friends? Have they all got the bends?
C
Caddd9
C
Am I really sinking this
low
D
COURUS 1:

Cadd9
G/B
Cadd9
my baby's got the bends,
oh no
D
Cadd9
G/B
Cadd9
We don't have any real friends,
no, no, no
A
I'm just lying in a bar with my drip feed on
C
Talking to my girlfriend, waiting for something to happen
A
I wish it was the sixties I wish I could be happy
C
Cadd9
I wish, I wish, I wish that something would happen
Em

VERSE 3:

G
where do i go from here? The planet is again numb
C
Cadd9
C
In a sea of fear and where are
you?
Em
G
They bought in the CIA, the tanks and the whole marines
C
Cadd9
C
To blow me away, to blow me sky
high
D

COURUS 2:

Cadd9
G/B
Cadd9
my baby's got the be________________nds
D
Cadd9 G/B
Cadd9
We don't have any real
frie__________nds
A
I'm just lying in a bar with my drip feed on
C
Talking to my girlfriend, waiting for something to happen
A
I wish it was the sixties I wish I could be happy
C
Cadd9

I wish, I wish, I wish that something would happen


SOLO:

OUTRO:

| G

Cadd9| G

Cadd9| C

| C

| G

Cadd9| G

Cadd9| C

| C

(C)
G
Cadd9
I wanna live and breathe
G
C
Cadd9
I wanna be part of the human race
G
Cadd9
I wanna live and breathe
G
C
Cadd9
I wanna be part of the human race, race, race, race
Em
G
where do we go from here? the words are coming out all weird
C
Cadd9
C(1)
where are you now when I need
you?

=================================================================================
=========
3. HIGH AND DRY
--------------G#m(11) (x66400)
F#m(11) (x44200)
Asus2 (x02200)
E (022100)
INTRO:

| G#m(11)

F#m(11)

| Asus2

| E

| G#m(11)

F#m(11)

| Asus2

| E

F#m(11)
VERSE 1:
don't you boy?

Asus2
E
two jumps in a week a bet you think that's pretty clever

F#m(11)
Asus2
E
Flying on your motorcycle, watching all the ground beneath you
drop
F#m(11)
Asus2
E
You'd kill yourself for recognition, kill yourself to never ever
stop
F#m(11)
Asus2
E
You broke another mirror, you're turning into something you are
not

COURUS 1:

LINK:

F#m(11)
Asus2
E
So don't leave me high____
don't leave me dry____
F#m(11)
Asus2
E
Don't leave me high____
don't leave me dry
| G#m(11)

F#m(11)

| Asus2

| E

F#m(11)
VERSE 2:
talk

Asus2
E
drying up in conversation you will be the one who cannot

F#m(11)
All your insides fall to pieces
Asus2
E
you just sit there wishing you could still make love
F#m(11)
they're the ones who'll hate you
Asus2
E
when you think you got the world all sussed out
F#m(11)
Asus2
they're the one's who'll spit at you, you will be the one

screaming out

COURUS 2:

SOLO:

MIDDLE:

COURUS 3:

F#m(11)
Asus2
E
don't leave me high____
don't leave me dry____
F#m(11)
Asus2
E
Don't leave me high____
don't leave me dry____
| F#m(11)

| Asus2

| E

| F#m(11)

| Asus2

| E

F#m(11)
oh, it's the best thing that you ever had
Asus2
E
The best thing that you ever, ever had
F#m(11)
It's the best thing that you ever had
Asus2
E
The best thing you have had has gone away
F#m(11)
Asus2
E
so don't leave me high____
don't leave me dry____
F#m(11)
Asus2
E
Don't leave me high____
don't leave me dry____
F#m(11)
Asus2
E
Don't leave me high____
F#m(11)
Asus2
E(1)
Don't leave me high____
don't leave me dry

=================================================================================
==========
4. FAKE PLASTIC TREES
--------------------A (x02220)
E (022100)
A/F# (2x0220)
Amaj7 (x02120)
Dsus2 (xx0230)
Dsus2/B (x20230)

Dsus2
VERSE 1:
rubber plant

A/F#

Amaj7

Her green plastic watering can, for her fake Chinese


A
Dsus2
In the fake plastic earth
A

A/F#

Amaj7

Dsus2
That she bought from a rubber man, in a town full of rubber
plans
A
Dsus2
To get rid of itself

COURUS 1:

Dsus2/B
A
It wears her out, it wears her out
Dsus2/B
A
It wears her out, it wears her out

E
A/F#
Amaj7 Dsus2
She lives with a broken man, a cracked polystyrene

VERSE 2:
man

A
Dsus2
Who just crumbles and burns
A
E A/F#
Amaj7
Dsus2
He used to do surgery, for girls in the eigh - ties
A
Dsus2
But gravity always wins

COURUS 2:

Dsus2/B
A
And it wears him out, it wears him out
Dsus2/B
A
It wears him out, it wears____

A
Dsus2
VERSE 3:
thing

A/F#

Amaj7

She looks like the real thing, she tastes like the real
A
Dsus2
My fake plastic love
A

A/F#

Amaj7

Dsus2
But I can't help the feeling, I could blow through the cei

ling
A
Dsus2
If I just turn and run

COURUS 3:

OUTRO:

Dsus2/B
A
And it wears me out, it wears me out
Dsus2/B
A
It wears me out, it wears me out

Dsus2
A
And if I could be who you wanted, if I could be who you wanted
Dsus2
A

All the time, all the time


| Dsus2

| A

| Dsus2

| A(1)

=================================================================================
=========
5. BONES
-------D (xx0232)
G (320033)
G/F# (2x0033)
A (x02220)
Em (022000)
INTRO:

| D

| G

| G/F#

| A

| A

| A

| A

| D

| G

| G/F#

| A

| A

| A

| A

VERSE 1:

G
G/F#
A
I Don't wanna be crippled cracked
D
G
G/F#
A
Shoulders, wrists, knees and back
D
G G/F#
A
Ground to dust and ash
D
G
G/F#
A
Crawling on all fours
(A)

COURUS 1:

Em
G
G/F#
A
when you've got to feel it in your bones
Em
G
G/F#
A
when you've got to feel it in your bones
D

VERSE 2:

G/F#
A
Now I can't climb the stairs
D
G
G/F#
A
Pieces missing everywhere
D G
G/F#
A
Prozak painkillers
(A)

COURUS 2:

BRIDGE:

Em
G
G/F#
A
when you've got to feel it in your bones
Em
G
G/F#
A
when you've got to feel it in your bones
D
G
G/F#
A
I used to fly like peter pan____
D
G
G/F#
A
All the children flew when I touched their hands____
(A)

COURUS 3:

Em
G
G/F#
A
They say you've got to feel it in your bones
Em
G
G/F#
A

They say you've got to feel it in your bones


OUTRO:

| Em

| G

| G/F#

| A

| A

| A

| A

| Em

| G

| G/F#

| A

| A

| A

| A

| Em

| G

| G/F#

| A

| A

| A

| A

| Em

| G

| G/F#

| A(1)

=================================================================================
==========
6. (NICE DREAM)
--------------C (8(10)(10)988)
B (799877)
Bb (688766)
A (577655)
A* (x02220)
Asus2 (x02200)
Esus4 (022200)
E (022100)
Dsus2/B (x20230)
Dsus2 (xx0230)
INTRO:

| C

| B

| Bb

| A

| C

| B

| Bb

| A*

| Asus2

A*

| A*

| Asus2

E
VERSE 1:
listen to me

Esus4

They love me like I was a brother, they protect me,


A*

Esus4

E
They dug me my very own garden, gave me sunshine, made me happy
Dsus2/B
Esus4 E
Nice dream, nice dream,

COURUS 1:

A*

Asus2
A*
nice dream

Asus2

A*

VERSE 2:

COURUS 2:

D
I called up my friend the good angel
Esus4
E
but she's out with, her answer phone
A*
D
She says that she'd love to come help but
Esus4
E
The sea would electrocute us all
Dsus2/B
Esus4 E
Nice dream, nice dream
A*
F#m
Dsus2/B

Esus4

Nice dream, nice dream, nice dream, nice dream


A*
Nice dream (if you think that you're strong enough)
F#m
Nice dream (if you think you belong enough)
Dsus2/B
Nice dream (if you think that you're strong enough)
Dsus2
(A*)
Nice dream____
SOLO:

OUTRO:

| (A*)

| A*

| A*

| A*

G |

| A*

| A*

| A*

| G

D |

| A*

| D

G | A*

| G

D |

| A*

| D

G | A*

| D

| C

| B

| Bb

| A

| C

| B

| Bb

| A

| C

| B

| Bb

| Bb

A*
F#m
Dsus2/B
E
A(1)
Nice dream, nice dream, nice dream, nice dream
=================================================================================
=========
7. JUST
------C (x3555x)
Eb (x6888x)
D (x5777x)
F (x8(10)(10)(10)x)
Am (577555)
G# (466544)
Eb* ((11)(13)(13)(12)(11)(11))
Bb (688766)
G (355433)
F* (133211)
INTRO:

| C
Am

VERSE 1:
days

| Eb

| D

| F

(x3)

G#
Eb*
Bb
Can't get the stink off, he's been hanging round for

Am
G#
Eb*
Bb
Comes like a comet, suckered you but not your friends

Am

G#

G#

F*

BRIDGE 1:
ly
cow

One day he'll get to you and teach you how to be a ho -

C
Eb
D
F
You do it to yourself you do and that's what really

COURUS 1:
hurts

C
Eb
D
F
Is you do it to yourself just you, you and no-one else
C Eb D F
C Eb D F
You do it to yourself____
you do it to yourself____
Am

G#
Eb*
Bb
Don't get much sympathy hanging out the fifteenth floor

VERSE 2:

Am
Changed the locks three times
G#
Eb
He still comes reeling through the door
Am

Bb

G#

F*
BRIDGE 2:
pur - ist hell

G#

And soon he'll get to you and teach you how to get to

C
Eb
D
F
You do it to yourself you do and that's what really

COURUS 2:
hurts

C
Eb
D
F
Is you do it to yourself just you, you and no-one else
C Eb D F
C Eb D F
You do it to yourself____
you do it to yourself____
SOLO:
|

| C

| Eb

| D

| F

| C

| Eb

| D

| Am

| G#

| Eb*

| F*

| Am

| G#

| G

| C

| Eb

| D

| F

| C

| Eb

| (F)

| F

F# | F*

(F)
COURUS 3:
hurts

C
Eb
D
F
You do it to yourself you do and that's what really

C
Eb
D
F
Is you do it to yourself just you, you and no-one else
C Eb D F
C Eb D F
You do it to yourself____
you do it to yourself____

OUTRO:

| C

| Eb

| D

| F

| C

| Eb

| D

(x9)

=================================================================================
=========

8. MY IRON LUNG
--------------G (355433)
Cm (8(10)(10)888)
B (799877)
Bb (688766)
A (577655)
Am (577555)
G# (466544)
G#m (466444)
C (8(10)(10)988
Bbm (688666)
INTRO:

| G

| Cm

(x4)

G
VERSE 1:

LINK 1:

Cm
G
Cm
G
Faith, you're driving me away, you do it every day
Cm
G
Cm
You don't mean it but it hurts like hell
G
Cm
G
Cm
G
My brain, says I'm receiving pain, a lack of oxygen
Cm
G
Cm
(G)
From my life support, my iron lung____
| G

| Cm

(x2)

G
VERSE 2:

LINK 2:

SOLO:

Cm
G
Cm
G
We're too young to fall asleep, to cynical to speak
Cm
G
Cm
We are losing it, can't you tell
G
Cm
G
Cm
G
We scratch our eternal itch, our twentieth century bitch
Cm
G
Cm
(G)
And we are grateful for our iron lung____
| (G)

| Cm

| G

| Cm B Bb A Am G# G#m |

Gm
G
Gm
C
The head - shrinkers, they
Bb Bbm Bb
Bbm
Cm B
My un - cle bill, my be G
Gm
G
Gm
C
The head - shrinkers, they
Bb Bbm Bb
Bbm
Cm B
My un - cle bill, my be | (G)
G

VERSE 3:

| Cm
Cm

Cm
want
Bb
li Cm
want
Bb
li -

C
Cm
everything
A
Am G#
sha be C
Cm
everything
A
Am G#
sha be -

G#m
can
G#m
can
|

(x2)

G
Cm
G
Suck, suck your teenage thumb, toilet trained and dumb
Cm
G
Cm
When the power runs out we'll just hum

G
Cm
G
Cm
G
This, this is our new song, just like the last one
Cm
G
Cm B Bb A Am G#
A total waste of time, my iron lung____
SOLO:

MIDDLE:

SOLO:

OUTRO:

Gm
G
Gm
C
The head - shrinkers, they
Bb Bbm Bb
Bbm
Cm B
My un - cle bill, my be G
Gm
G
Gm
C
The head - shrinkers, they
Bb Bbm Bb
Bbm
Cm B
My un - cle bill, my be | G
Gm
G
Gm | C

Cm
want
Bb
li Cm
want
Bb
li Cm

C
Cm
everything
A
Am G#
sha be C
Cm
everything
A
Am G#
sha be C
Cm

G#m
can
G#m
can
|

| Bb

Bbm

Bb

Bbm | Cm B Bb A Am G# G#m |

| G

Gm

Gm

| Bb

Bbm

Bb

Bbm | Cm B Bb A Am G# G#m |

| C

Cm

Cm

G#m

Gm
C
Bb
And if you're frightened, you can be frightened
G#
You can be it's okay
Gm
C
Bb
And if you're frightened, you can be frightened
G#
You can be it's okay
| G

Gm

Gm

| C

| Bb

Bbm

Bb

Bbm | Cm B Bb A Am G# G#m |

| G

Gm

Gm

| Bb

Bbm

Bb

Bbm | Cm B Bb A Am G# G#m |

| C

G
Gm
G
Gm
C
The head - shrinkers, they
Bb Bbm Bb
Bbm
Cm B
My un - cle bill, my be G
Gm
G
Gm
C
The head - shrinkers, they
Bb Bbm Bb
Bbm
Cm B
My un - cle bill, my be -

Cm

Cm

Cm
want
Bb
li Cm
want
Bb
li -

Cm

Cm

C
Cm
everything
A
Am G#
sha be C
Cm
everything
A
Am G#
sha be -

G#m
can
G#m
can

G(1)

=================================================================================
=========
9. BULET PROOF..I WISH I WAS
---------------------------Am7 (x02010)
Cmaj7 (x32000)
Gmaj7/B (x20032)

Dsus2 (xx0230)
Csus2 (x3003x)
G/B (x2003x)
G (320033)
Cadd9 (x3203x)
Bb6 (x1303x)
INTRO:

| Am7
| Dsus2
| Dsus2
Am7

G/B
VERSE 1:
me

| Cmaj7
Csus2 G/B | Am7
| Dsus2
Cmaj7

Gmaj7/B

| Dsus2

| Cmaj7

| Am7

|
Dsus2

Csus2

Limb by limb and tooth by tooth, stirring up inside of


Am7
Cmaj7
Gmaj7/B
Dsus2
(Am7)
Everyday, every hour, wish that I was bullet proof
| Am7
| Dsus2

| Cmaj7

| Dsus2

Csus2 G/B |

Am7
VERSE 2:

Cmaj7
Gmaj7/B
Dsus2
Csus2 G/B
Wax me, mould me, heat the pins and stab them in
Am7
Cmaj7
Gmaj7/B
Dsus2
You have turned me into this, just wish that it was bullet
G
Gmaj7/B
Cadd9
Proof
G
Gmaj7/B
Cadd9
Bb6
Was bullet proof
Am7

G/B
VERSE 3:

Cmaj7

Gmaj7/B

Dsus2

Csus2

So pay money and take a shot, lead-fill the whole in me


Am7
Cmaj7
Gmaj7/B Dsus2
I could burst a million bubbles, all surrogate and bullet
G
Gmaj7/B
Cadd9
Proof
G
Gmaj7/B
Cadd9
And bullet proof
G
Gmaj7/B
Cadd9
Bullet proof
G
Gmaj7/B
Cadd9
Bb6(1)
Bullet proof

=================================================================================
==========
10. BLACK STAR
-------------D (xx0232)
Dsus4 (xx0233)
Em7 (022033)

Cadd9 (x32033)
G/B (x20033)
A7sus4 (x02033)
G (320033)
Csus2 (x30033)
Dsus4/F# (2x0233)
Bm (x24432)
Dsus2 (xx0230)
D7sus2 (xx0210)
D6sus2 (xx0200)
Am (x02210)
C (x32010)
INTRO:

| D Dsus4

| Em7

| Cadd9 G/B A7sus4 |

| D Dsus4

| Em7

| Cadd9 G/B A7sus4 |

| D Dsus4

| Em7

| Cadd9 G/B A7sus4 |

| D Dsus4

| Em7

| Cadd9 G/B A7sus4 |

G
VERSE 1:
dressing gown

Csus2
G/B
Dsus4/F#
I get home from work and you're still standing in your

Emadd9
Well what am I to do?
G
Csus2
G/B
Dsus4/F#
Emadd9
I know all the things around your head
and what they do to you
Cadd9
Bm
D
What are we coming to? What are we gonna do?
Dsus2
C
COURUS 1:
falling sky

D7sus2

D6sus2

Blame it on

Am

the

Cadd9
G
Cadd9
Blame it on the satellite

Cadd9

black star,

G
Gsus4
that beams

G
me

Am
blame it on the
D
home

G
VERSE 2:

Csus2
G/B
Dsus4/F#
Troubled words of a troubled mind, I try to understand
Emadd9
What is eating you
G
Csus2
G/B
I try to stay awake but it's fifty-eight hours
Dsus4/F#
Emadd9
Since that I last slept with you
Cadd9
Bm
D
What are we coming to? I just don't know anymore
Dsus2

C
COURUS 2:
falling sky

D7sus2

D6sus2

Blame it on
Cadd9
G
Cadd9
Blame it on the satellite

Am

the

Cadd9

black star,

G
Gsus4
that beams

Am
blame it on the

G (D)
me home

LINK:

|(D) Dsus4

| Em7

| Cadd9 G/B A7sus4 |

| D Dsus4

| Em7

| Cadd9 G/B A7sus4 |

| D Dsus4

| Em7

| Cadd9 G/B A7sus4 |

| D Dsus4

| Em7

| Cadd9 G/B A7sus4 |

G
Csus2
G/B
Dsus4/F#
Emadd9
VERSE 3:
I get on the train and I just stand about now that I
don't think of you
G
Csus2
G/B
Dsus4/F#
Emadd9
I keep falling over, I keep passing out when I see a face like
you
Cadd9
Bm
D
What am I coming to? I'm gonna melt down
Dsus2
C
COURUS 3:
falling sky

D7sus2

D6sus2

Blame it on

Dsus4

Cadd9

black star,

G
Gsus4
that beams

Am
blame it on the

G (D)
me home

|(D) Dsus4

| Em7

| Cadd9 G/B A7sus4 |

| D Dsus4

| Em7

| Cadd9 G/B A7sus4 |

| D Dsus4

| Em7

| Cadd9 G/B A7sus4 |

| D Dsus4

| Em7

| Cadd9(G/B A7sus4)|

(G/B A7sus4) D Dsus4


Em7
OUTRO:

the

Cadd9
G
Cadd9
Blame it on the satellite

LINK:

Am

why?____
Cadd9 G/B

Em7

Cadd9

G/B

A7sus4

This is killing me____


A7sus4 D Dsus4
Em7
Cadd9
G/B

D Dsus4
A7sus4

Em7
Why?____
| Cadd9

G/B

This is killing me____

A7sus4 |

=================================================================================
=========
11. SULK
-------D (xx0232)
Dsus2 (xx0230)
Dmaj9 (xx0220)
C (x32010)
G (320003)
Dsus4 (xx0233)
E (02210x)

E* (022100)
Emaj9 (02244x)
A (x02220)
Esus4 (02220x)
INTRO:

e|---------------------------------|
B|---3-2-----3-2---2-2-0-----3-2---|
G|-------2-------2-------0-------2-|
D|-0-------0---------------0-------|
| D

| Dsus2 | Dmaj9 | Dsus2 | D

| Dsus2 | Dmaj9 | Dsus2

| C

| C

| Dsus2 | Dmaj9 |

|
| G

| G

| D

(Dsus2)|

VERSE 1:

(Dsus2)
D
Dsus2
Dmaj9
You bite through the big wall
Dsus2
D
Dsus2
Dmaj9
The big wall bites back
Dsus2
C
G
D
Dsus2
You sit there and sulk, sit there and bawl
Dsus2

VERSE 2:

D
Dsus2
Dmaj9
You are so pretty
Dsus2
D
Dsus2
Dmaj9
When you're on your knees
Dsus2
C
G
D
Dsus2
Disin - fected and eager to please

Dmaj9

Dsus4 D
Sometimes you su
D
Dsus4

COURUS 1:

Dmaj9

Dsus2

G
C
- ulk, sometimes you burn
G
C

Dsus4

D
God rest your so - oul when the loving comes and we've already
gone
G
C
(D)
Just like your dad, you'll never change
LINK 1:
|

|(D)

| Dsus2 | Dmaj9 | Dsus2 | D

| Dsus2 | Dmaj9 | Dsus2

| C

| C

| Dsus2 | Dmaj9 | Dsus2

| G

| G

| D

|
(Dsus2) D
VERSE 3:

Dsus2
Dmaj9
Each time you come
Dsus2 D
Dsus2
Dmaj9
It eats me alive
Dsus2 C
G
D
Dsus2
I try to behave, but it eats me alive
Dsus2

VERSE 4:

D
Dsus2
Dmaj9
So I
declare
Dsus2 D
Dsus2
Dmaj9
A holi - day

Dmaj9

Dsus2 C
G
D
Dsus2
Fall asleep, drift away
G

Dsus4 D
Sometimes you su
D
Dsus4

COURUS 2:

Dmaj9

Dsus2

G
C
- ulk, sometimes you burn
G
C

Dsus4

D
God rest your so - oul when the loving comes and we've already
gone
G
C
(D)
Just like your dad, you'll never change
SOLO:
|

|(D)

| Dsus2 | Dmaj9 | Dsus2 | E

| E*

| Emaj9 | E*

| E

| E*

| Emaj9 | E*

| D

| D

| A

| E

| E*

| Emaj9 | E*

| E

| E*

| Emaj9 | E*

| E

| E*

| Emaj9 | E*

| D

| D

| A

| E

| E

| E

| A

|
| A

COURUS 3:

| E

Esus4 E
Sometimes you su
E
Esus4

A
D
- ulk, sometimes you burn
A
D

Esus4

E
God rest your so - oul when the loving comes and we've already
gone
A
D
E(1)
Just like your dad, you'll never change
=================================================================================
=========
12. STREET SPIRIT (FADE OUT)
---------------------------Am (x02210)
Asus4 (x02230)
Asus2 (x02200)
Em (022000)
Em7 (022030)
Em/D7 (022010)
Cmaj7 (x32000)
Cadd9 (x32030)
C (x32010)

INTRO:

(Asus2)
(Asus4)
(Am)
(Asus2)
e|-------0----|-------0----|-------0----|------------|
B|------------|-3----------|-1----------|-0----------|
G|----------2-|----2-----2-|----2-----2-|----2-----2-|
D|----2-------|------------|------------|-------2----|

(x4)

A|-0----------|------------|------------|------------|
E|------------|------------|------------|------------|

VERSE 1:

(Asus2)
(Asus4)
(Am)
(Asus2)
e|-------0----|-------0----|-------0----|------------|
B|------------|-3----------|-1----------|-0----------|
G|----------2-|----2-----2-|----2-----2-|----2-----2-|
(x4)
D|----2-------|------------|------------|-------2----|
A|-0----------|------------|------------|------------|
E|------------|------------|------------|------------|
Rows of houses
All bearing down on me
I can feel there
Blue hands touching me
(Em)
(Em7)
(Em/D7)
(Em)
e|-------0----|-------0----|-------0----|------------|
B|------------|-3----------|-1----------|-0----------|
G|----------0-|----0-----0-|----0-----0-|----0-----0-|
D|----2-------|------------|------------|-------2----|
A|-2----------|------------|------------|------------|
E|------------|------------|------------|------------|

(x2)

All these things into position


All these things will one day swallow whole
(Asus2)
(Asus4)
(Am)
(Asus2)
e|-------0----|-------0----|-------0----|------------|
B|------------|-3----------|-1----------|-0----------|
G|----------2-|----2-----2-|----2-----2-|----2-----2-|
D|----2-------|------------|------------|-------2----|
A|-0----------|------------|------------|------------|
E|------------|------------|------------|------------|

(x2)

(Cmaj7

COURUS 1:

(Cadd9)
(C)
(Cmaj7)
e|-------0----|-------0----|-------0----|------------|
B|------------|-3----------|-1----------|-0----------|
G|----------0-|----0-----0-|----0-----0-|----0-----0-|
D|----2-------|------------|------------|-------2----|
A|-3----------|------------|------------|------------|
E|------------|------------|------------|------------|
And fade__________________________________________
(Em)
(Em7)
(Em/D7)
(Em)
e|-------0----|-------0----|-------0----|------------|
B|------------|-3----------|-1----------|-0----------|
G|----------0-|----0-----0-|----0-----0-|----0-----0-|
D|----2-------|------------|------------|-------2----|
A|-2----------|------------|------------|------------|
E|------------|------------|------------|------------|
Out_______________________________________________
(Asus2)
(Asus4)
(Am)
(Asus2)
e|-------0----|-------0----|-------0----|------------|
B|------------|-3----------|-1----------|-0----------|
G|----------2-|----2-----2-|----2-----2-|----2-----2-|
D|----2-------|------------|------------|-------2----|

(x2)

A|-0----------|------------|------------|------------|
E|------------|------------|------------|------------|
Again_____________________________________________
(Cmaj7
(Cadd9)
(C)
(Cmaj7)
e|-------0----|-------0----|-------0----|------------|
B|------------|-3----------|-1----------|-0----------|
G|----------0-|----0-----0-|----0-----0-|----0-----0-|
D|----2-------|------------|------------|-------2----|
A|-3----------|------------|------------|------------|
E|------------|------------|------------|------------|
And fade__________________________________________
(Em)
(Em7)
(Em/D7)
(Em)
e|-------0----|-------0----|-------0----|------------|
B|------------|-3----------|-1----------|-0----------|
G|----------0-|----0-----0-|----0-----0-|----0-----0-|
D|----2-------|------------|------------|-------2----|
A|-2----------|------------|------------|------------|
E|------------|------------|------------|------------|
Out_______________________________________________

VERSE 2:

(Asus2)
(Asus4)
(Am)
(Asus2)
e|-------0----|-------0----|-------0----|------------|
B|------------|-3----------|-1----------|-0----------|
G|----------2-|----2-----2-|----2-----2-|----2-----2-|
(x4)
D|----2-------|------------|------------|-------2----|
A|-0----------|------------|------------|------------|
E|------------|------------|------------|------------|
This machine will
Will not communicate
These thoughts and the strain I am
Under
(Em)
(Em7)
(Em/D7)
(Em)
e|-------0----|-------0----|-------0----|------------|
B|------------|-3----------|-1----------|-0----------|
G|----------0-|----0-----0-|----0-----0-|----0-----0-|
D|----2-------|------------|------------|-------2----|
A|-2----------|------------|------------|------------|
E|------------|------------|------------|------------|

(x2)

Be a world child form a circle


Before we all go
(Asus2)
(Asus4)
(Am)
(Asus2)
e|-------0----|-------0----|-------0----|------------|
B|------------|-3----------|-1----------|-0----------|
G|----------2-|----2-----2-|----2-----2-|----2-----2-|
D|----2-------|------------|------------|-------2----|
A|-0----------|------------|------------|------------|
E|------------|------------|------------|------------|
Under
(Cmaj7

(Cadd9)

(C)

(Cmaj7)

(x2)

COURUS 2:

e|-------0----|-------0----|-------0----|------------|
B|------------|-3----------|-1----------|-0----------|
G|----------0-|----0-----0-|----0-----0-|----0-----0-|
D|----2-------|------------|------------|-------2----|
A|-3----------|------------|------------|------------|
E|------------|------------|------------|------------|
And fade__________________________________________
(Em)
(Em7)
(Em/D7)
(Em)
e|-------0----|-------0----|-------0----|------------|
B|------------|-3----------|-1----------|-0----------|
G|----------0-|----0-----0-|----0-----0-|----0-----0-|
D|----2-------|------------|------------|-------2----|
A|-2----------|------------|------------|------------|
E|------------|------------|------------|------------|
Out_______________________________________________
(Asus2)
(Asus4)
(Am)
(Asus2)
e|-------0----|-------0----|-------0----|------------|
B|------------|-3----------|-1----------|-0----------|
G|----------2-|----2-----2-|----2-----2-|----2-----2-|
D|----2-------|------------|------------|-------2----|
A|-0----------|------------|------------|------------|
E|------------|------------|------------|------------|

(x2)

Again_____________________________________________
(Cmaj7
(Cadd9)
(C)
(Cmaj7)
e|-------0----|-------0----|-------0----|------------|
B|------------|-3----------|-1----------|-0----------|
G|----------0-|----0-----0-|----0-----0-|----0-----0-|
D|----2-------|------------|------------|-------2----|
A|-3----------|------------|------------|------------|
E|------------|------------|------------|------------|
And fade__________________________________________
(Em)
(Em7)
(Em/D7)
(Em)
e|-------0----|-------0----|-------0----|------------|
B|------------|-3----------|-1----------|-0----------|
G|----------0-|----0-----0-|----0-----0-|----0-----0-|
D|----2-------|------------|------------|-------2----|
A|-2----------|------------|------------|------------|
E|------------|------------|------------|------------|
Out_______________________________________________
(Asus2)
(Asus4)
(Am)
(Asus2)
e|-------0----|-------0----|-------0----|------------|
B|------------|-3----------|-1----------|-0----------|
G|----------2-|----2-----2-|----2-----2-|----2-----2-|
D|----2-------|------------|------------|-------2----|
A|-0----------|------------|------------|------------|
E|------------|------------|------------|------------|
Again_____________________________________________

SOLO:

(Cmaj7
(Cadd9)
(C)
(Cmaj7)
e|-------0----|-------0----|-------0----|------------|
B|------------|-3----------|-1----------|-0----------|
G|----------0-|----0-----0-|----0-----0-|----0-----0-|

(x2)

D|----2-------|------------|------------|-------2----|
A|-3----------|------------|------------|------------|
E|------------|------------|------------|------------|
(Em)
(Em7)
(Em/D7)
(Em)
e|-------0----|-------0----|-------0----|------------|
B|------------|-3----------|-1----------|-0----------|
G|----------0-|----0-----0-|----0-----0-|----0-----0-|
D|----2-------|------------|------------|-------2----|
A|-2----------|------------|------------|------------|
E|------------|------------|------------|------------|
(Asus2)
(Asus4)
(Am)
(Asus2)
e|-------0----|-------0----|-------0----|------------|
B|------------|-3----------|-1----------|-0----------|
G|----------2-|----2-----2-|----2-----2-|----2-----2-|
D|----2-------|------------|------------|-------2----|
A|-0----------|------------|------------|------------|
E|------------|------------|------------|------------|

(x2)

(Cmaj7
(Cadd9)
(C)
(Cmaj7)
e|-------0----|-------0----|-------0----|------------|
B|------------|-3----------|-1----------|-0----------|
G|----------0-|----0-----0-|----0-----0-|----0-----0-|
D|----2-------|------------|------------|-------2----|
A|-3----------|------------|------------|------------|
E|------------|------------|------------|------------|
(Em)
(Em7)
(Em/D7)
(Em)
e|-------0----|-------0----|-------0----|------------|
B|------------|-3----------|-1----------|-0----------|
G|----------0-|----0-----0-|----0-----0-|----0-----0-|
D|----2-------|------------|------------|-------2----|
A|-2----------|------------|------------|------------|
E|------------|------------|------------|------------|

VERSE 3:

(Asus2)
(Asus4)
(Am)
(Asus2)
e|-------0----|-------0----|-------0----|------------|
B|------------|-3----------|-1----------|-0----------|
G|----------2-|----2-----2-|----2-----2-|----2-----2-|
(x4)
D|----2-------|------------|------------|-------2----|
A|-0----------|------------|------------|------------|
E|------------|------------|------------|------------|
Cracked eggs, dead birds
Scream as they fight for life
I can feel death
Can see it's beady eyes
(Em)
(Em7)
(Em/D7)
(Em)
e|-------0----|-------0----|-------0----|------------|
B|------------|-3----------|-1----------|-0----------|
G|----------0-|----0-----0-|----0-----0-|----0-----0-|
D|----2-------|------------|------------|-------2----|
A|-2----------|------------|------------|------------|
E|------------|------------|------------|------------|
All these things into position
All these things will one day swallow whole
(Asus2)
(Asus4)
(Am)
(Asus2)
e|-------0----|-------0----|-------0----|------------|

(x2)

B|------------|-3----------|-1----------|-0----------|
G|----------2-|----2-----2-|----2-----2-|----2-----2-|
D|----2-------|------------|------------|-------2----|
A|-0----------|------------|------------|------------|
E|------------|------------|------------|------------|

(x2)

(Cmaj7

COURUS 3:

(Cadd9)
(C)
(Cmaj7)
e|-------0----|-------0----|-------0----|------------|
B|------------|-3----------|-1----------|-0----------|
G|----------0-|----0-----0-|----0-----0-|----0-----0-|
D|----2-------|------------|------------|-------2----|
A|-3----------|------------|------------|------------|
E|------------|------------|------------|------------|
And fade__________________________________________
(Em)
(Em7)
(Em/D7)
(Em)
e|-------0----|-------0----|-------0----|------------|
B|------------|-3----------|-1----------|-0----------|
G|----------0-|----0-----0-|----0-----0-|----0-----0-|
D|----2-------|------------|------------|-------2----|
A|-2----------|------------|------------|------------|
E|------------|------------|------------|------------|
Out_______________________________________________
(Asus2)
(Asus4)
(Am)
(Asus2)
e|-------0----|-------0----|-------0----|------------|
B|------------|-3----------|-1----------|-0----------|
G|----------2-|----2-----2-|----2-----2-|----2-----2-|
D|----2-------|------------|------------|-------2----|
A|-0----------|------------|------------|------------|
E|------------|------------|------------|------------|

(x2)

Again_____________________________________________
(Cmaj7
(Cadd9)
(C)
(Cmaj7)
e|-------0----|-------0----|-------0----|------------|
B|------------|-3----------|-1----------|-0----------|
G|----------0-|----0-----0-|----0-----0-|----0-----0-|
D|----2-------|------------|------------|-------2----|
A|-3----------|------------|------------|------------|
E|------------|------------|------------|------------|
And fade__________________________________________
(Em)
(Em7)
(Em/D7)
(Em)
e|-------0----|-------0----|-------0----|------------|
B|------------|-3----------|-1----------|-0----------|
G|----------0-|----0-----0-|----0-----0-|----0-----0-|
D|----2-------|------------|------------|-------2----|
A|-2----------|------------|------------|------------|
E|------------|------------|------------|------------|
Out_______________________________________________
(Asus2)
(Asus4)
(Am)
(Asus2)
e|-------0----|-------0----|-------0----|------------|
B|------------|-3----------|-1----------|-0----------|
G|----------2-|----2-----2-|----2-----2-|----2-----2-|
D|----2-------|------------|------------|-------2----|

(x2)

A|-0----------|------------|------------|------------|
E|------------|------------|------------|------------|
Again_____________________________________________

SOLO 2:

(Cmaj7
(Cadd9)
(C)
(Cmaj7)
e|-------0----|-------0----|-------0----|------------|
B|------------|-3----------|-1----------|-0----------|
G|----------0-|----0-----0-|----0-----0-|----0-----0-|
D|----2-------|------------|------------|-------2----|
A|-3----------|------------|------------|------------|
E|------------|------------|------------|------------|
(Em)
(Em7)
(Em/D7)
(Em)
e|-------0----|-------0----|-------0----|------------|
B|------------|-3----------|-1----------|-0----------|
G|----------0-|----0-----0-|----0-----0-|----0-----0-|
D|----2-------|------------|------------|-------2----|
A|-2----------|------------|------------|------------|
E|------------|------------|------------|------------|
(Asus2)
(Asus4)
(Am)
(Asus2)
e|-------0----|-------0----|-------0----|------------|
B|------------|-3----------|-1----------|-0----------|
G|----------2-|----2-----2-|----2-----2-|----2-----2-|
D|----2-------|------------|------------|-------2----|
A|-0----------|------------|------------|------------|
E|------------|------------|------------|------------|

(x2)

(Cmaj7
(Cadd9)
(C)
(Cmaj7)
e|-------0----|-------0----|-------0----|------------|
B|------------|-3----------|-1----------|-0----------|
G|----------0-|----0-----0-|----0-----0-|----0-----0-|
D|----2-------|------------|------------|-------2----|
A|-3----------|------------|------------|------------|
E|------------|------------|------------|------------|
(Em)
(Em7)
(Em/D7)
(Em)
e|-------0----|-------0----|-------0----|------------|
B|------------|-3----------|-1----------|-0----------|
G|----------0-|----0-----0-|----0-----0-|----0-----0-|
D|----2-------|------------|------------|-------2----|
A|-2----------|------------|------------|------------|
E|------------|------------|------------|------------|
(Asus2)
(Asus4)
(Am)
(Asus2)
e|-------0----|-------0----|-------0----|------------|
B|------------|-3----------|-1----------|-0----------|
G|----------2-|----2-----2-|----2-----2-|----2-----2-|
D|----2-------|------------|------------|-------2----|
A|-0----------|------------|------------|------------|
E|------------|------------|------------|------------|

OUTRO:

(Cmaj7
(Cadd9)
(C)
(Cmaj7)
e|-------0----|-------0----|-------0----|------------|
B|------------|-3----------|-1----------|-0----------|
G|----------0-|----0-----0-|----0-----0-|----0-----0-|
D|----2-------|------------|------------|-------2----|
A|-3----------|------------|------------|------------|
E|------------|------------|------------|------------|

(x2)

Immerse your
(Em)
(Em7)
(Em/D7)
(Em)
e|-------0----|-------0----|-------0----|------------|
B|------------|-3----------|-1----------|-0----------|
G|----------0-|----0-----0-|----0-----0-|----0-----0-|
D|----2-------|------------|------------|-------2----|
A|-2----------|------------|------------|------------|
E|------------|------------|------------|------------|
Soul_____ in
(Asus2)
(Asus4)
(Am)
(Asus2)
e|-------0----|-------0----|-------0----|------------|
B|------------|-3----------|-1----------|-0----------|
G|----------2-|----2-----2-|----2-----2-|----2-----2-|
D|----2-------|------------|------------|-------2----|
A|-0----------|------------|------------|------------|
E|------------|------------|------------|------------|

(x2)

Love_____________________________________________
(Cmaj7
(Cadd9)
(C)
(Cmaj7)
e|-------0----|-------0----|-------0----|------------|
B|------------|-3----------|-1----------|-0----------|
G|----------0-|----0-----0-|----0-----0-|----0-----0-|
D|----2-------|------------|------------|-------2----|
A|-3----------|------------|------------|------------|
E|------------|------------|------------|------------|
Immerse your
(Em)
(Em7)
(Em/D7)
(Em)
e|-------0----|-------0----|-------0----|------------|
B|------------|-3----------|-1----------|-0----------|
G|----------0-|----0-----0-|----0-----0-|----0-----0-|
D|----2-------|------------|------------|-------2----|
A|-2----------|------------|------------|------------|
E|------------|------------|------------|------------|
Soul in
(Asus2)
(Asus4)
(Am)
(Asus2)
(Asus2*)
e|-------0----|-------0----|------0----|------------|------------|
B|------------|-3----------|-1----------|0----------|------------|
G|----------2-|----2-----2-|----2-----2-|----2-----2-|2----------|
D|----2-------|------------|------------|-------2----|2----------|
A|-0----------|------------|------------|------------|0----------|
E|------------|------------|------------|------------|------------|
Love