Sunteți pe pagina 1din 15

Tenmon - Distant Everyday Memories TAB [lock1937]

#----------------------------------PLEASE NOTE---------------------------------#
1.

#This file is the author's own work and represents their interpretation of the #

2.

#song. You may only use this file for private study, scholarship, or research. #

3.

#------------------------------------------------------------------------------#

4.
5.
6.
7.

http://youtube.com/user/lock1937

8.
9.

https://www.youtube.com/watch?v=ohcWVap0vjE

10.
11.

Tenmon - Distant Everyday Memories TAB

12.
13.
14.
15.

Gtr I (E A D G B E) - 'Untitled'

16.
17.

Q=70

18.

2/4

19.

Gtr I

20.

SS

Q Q

Q. S S

EE E E

EE E SS EEEE EEESS

21.

|-7-9-|-10------|-------7-9-|-10---12-10-|-10--------5-3-|-2-----5-|---------0-|

22.

|-----|--7--10--|-12--------|--7-7-10----|--8-8-<12>-3---|-----5---|-3-----3---|

23.

|-----|------9--|-11--------|------------|--0---<12>-----|---2-2---|-----4-----|

24.

|-----|--9--11--|-12--------|--9---------|---------------|-0---2-2-|---4-------|

25.

|-----|------9--|-10--------|-------9----|---------------|-----0---|-2---------|

26.

|-----|---------|-----------|------------|---------------|---------|-----------|

27.
28.
29.

EEEE EEESS

EE E E

E E ESS

30.

|-2---0---|-------7-9-|-10---------|----------7-9-|

31.

|-0---2-3-|-3---7-----|--7-7-10----|-12----12-----|

32.

|---0---2-|---2-------|-------9----|-11-----------|

33.

|---------|-0---------|--9------11-|-12-12--------|

34.

|-----0---|-----------|-------9----|-10-----------|

35.

|-3-------|-----------|-------9----|--------------|

36.
37.
38.
39.

EE E E

EE E SS EEEE EEESS

|-10---12-10-|-10--------5-3-|-2-----5-|---------0-|

40.

|--7-7-10----|--8-8-<12>-3---|-----5---|-3-----3---|

41.

|------------|--0---<12>-----|---2-2---|-----4-----|

42.

|--9---------|---------------|-0---2-2-|---4-------|

43.

|-------9----|---------------|-----0---|-2---------|

44.

|------------|---------------|---------|-----------|

45.
46.
47.

E E E E Q. +S S E E E E E E E E E E E E E E E E E E E E

48.

|-2---0---|------------|-0-------|-------0-|-0-------|---------|-0--------|

49.

|-0---2-3-|-3----(3)---|-----2---|-2---2---|-----3---|-0---0---|----------|

50.

|---0---2-|----------2-|-----2---|-2---2---|-0---4---|---------|-2---2----|

51.

|---------|-4----(4)---|---2---2-|---2---2-|---0---0-|---0---0-|---2---2--|

52.

|-----0---|-5----------|-0-------|---------|---------|---------|-0--------|

53.

|-3-------|------------|---------|---------|-3-------|---------|----------|

54.
55.
56.

E E E E E E E E E E E E E E E E E E E E E E E E Q.

S S

57.

|-------0-|-0-------|---------|---------|-5-----3-|-0-------|------||-9-11--|

58.

|---------|---------|-0---0-2-|-3-------|-5-------|-------2-|------||-------|

59.

|-2---2---|-0---0---|-0---0---|---------|-0---0---|-----2---|-2----||-------|

60.

|---2---2-|---0---0-|---0---0-|-4-0-4-0-|---0-----|---2-----|-2----||-------|

61.

|---------|---------|---------|---------|---------|-0-------|-0----||-------|

62.

|---------|-3-------|---------|-2-------|---------|---------|------||-------|

63.
64.
65.

Q Q

Q.

Q E E

Q. S S Q E E Q. E

66.

|-12------|-------11-|-12--14-12-|-12----7-5-|-4----7-|------2-|

67.

|--9--12--|-14-------|--9--12----|-10--------|-0--7---|-5------|

68.

|-----11--|-13-------|-----------|-----------|--------|-6------|

69.

|-11--13--|-14-------|-11--------|-----------|-2--9---|-6------|

70.

|-----11--|-12-------|-----11----|--0--------|----9---|-4------|

71.

|---------|----------|-----------|-----------|----7---|--------|

72.
73.
74.

Q E E Q. S S Q Q

Q. E E E E E Q. S S

75.

|-4--2---|----------|-------|--------|---------|-0---------|

76.

|-2--4-5-|-5----2-4-|-5-----|-2----4-|-5---7-5-|-2----0----|

77.

|--------|-6--------|----4--|-1------|-6---4---|-2------2--|

78.

|--------|-6--------|-6--4--|-2------|-6-6-----|-----------|

79.

|-0--2---|-4--------|-4--6--|-0------|-4-------|-0---------|

80.

|--------|----------|----4--|--------|-----4---|-----------|

81.
82.
83.

Q E E Q. S S Q E E Q.

S S

E E E E

E E ESS

84.

|--------|----------|--------|------12-14-|-16----14----|-12----12-0-2-|

85.

|------0-|----------|--------|------------|-14----16-17-|--------------|

86.

|-1------|----------|--------|------------|----14-------|----13--------|

87.

|-2--4---|-2----2-4-|-6--4-2-|-2----------|-14----------|-11-----------|

88.

|-2--2---|-4--------|-4--2---|-4----------|--0----14----|--------------|

89.

|-0------|----------|-5------|------------|-------------|--------------|

90.
91.
92.

Q E E E E S S T T T T T T T T T T S T T T T T S. T T T T T

93.

|-4--2-0-|-0-------------0-|-------------0---------0-5--|-------------9--|

94.

|----0---|-2---2-4---0-2---|-----------2----------------|----------10----|

95.

|-2------|-2-------2-------|-----2---2---------2-1------|--------9-------|

96.

|--------|-2-2-------------|---2---2---------2----------|----------------|

97.

|--------|-0---------------|-0-------------0------------|-0--------------|

98.

|--------|-----------------|----------------------------|---<12>---------|

99.
100.
101.

T T

T T T S.

102.

|----------------9-12-----|

103.

|-------------10----------|

104.

|-------------------------|

105.

|-------------------------|

106.

|-0------<12>-------------|

107.

|---<12>------------------|

108.
109.
110.

Duration Legend

111.

---------------

112.

W - whole; H - half; Q - quarter; E - 8th; S - 16th; T - 32nd; X - 64th; a - acciaccatura

113.

+ - note tied to previous; . - note dotted; .. - note double dotted

114.

Uncapitalized letters represent notes that are staccato (1/2 duration)

115.

Irregular groupings are notated above the duration line

116.

Duration letters will always appear directly above the note/fret number it represents the

117.

duration for. Duration letters with no fret number below them represent rests. Multi-

118.

bar rests are notated in the form Wxn, where n is the number of bars to rest for. Low

119.

melody durations appear below the staf

120.
121.

Tablature Legend

122.

----------------

123.

h - hammer-on

124.

p - pull-of

125.

b - bend

126.

pb - pre-bend

127.

r - bend release (if no number after the r, then release immediately)

128.

/\ - slide into or out of (from/to "nowhere")

129.

s - legato slide

130.

S - shift slide

131.

<n> - natural harmonic

132.

[n] - artificial harmonic

133.

n(n) - tapped harmonic

134.

~ - vibrato

135.

tr - trill

136.

T - tap

137.

TP - trem. picking

138.

PM - palm muting

139.

\n/ - tremolo bar dip; n = amount to dip

140.

\n - tremolo bar down

141.

n/ - tremolo bar up

142.

/n\ - tremolo bar inverted dip

143.

= - hold bend; also acts as connecting device for hammers/pulls

144.

<> - volume swell (louder/softer)

145.

x - on rhythm slash represents muted slash

146.

o - on rhythm slash represents single note slash

147.
148.

Misc Legend

149.

-----------

150.

| - bar

151.

|| - double bar

152.

||o - repeat start

153.

o|| - repeat end

154.

*| - double bar (ending)

155.

: - bar (freetime)

156.

$ - Segno

157.

& - Coda

158.

Tempo markers - <E/E./Q/Q./H/H.> = BPM(8/16=s8/s16), where s8 = swing 8ths, s16 = swing

16ths
159.

#----------------------------------PLEASE NOTE---------------------------------#

160.

#This file is the author's own work and represents their interpretation of the #

161.

#song. You may only use this file for private study, scholarship, or research. #

162.

#------------------------------------------------------------------------------#

163.
164.
165.
166.

http://youtube.com/user/lock1937

167.
168.

https://www.youtube.com/watch?v=ohcWVap0vjE

169.
170.

Tenmon - Distant Everyday Memories TAB

171.
172.
173.
174.

Gtr I (E A D G B E) - 'Untitled'

175.
176.
177.

Q=70
2/4

178.

Gtr I

179.

SS

Q Q

Q. S S

EE E E

EE E SS EEEE EEESS

180.

|-7-9-|-10------|-------7-9-|-10---12-10-|-10--------5-3-|-2-----5-|---------0-|

181.

|-----|--7--10--|-12--------|--7-7-10----|--8-8-<12>-3---|-----5---|-3-----3---|

182.

|-----|------9--|-11--------|------------|--0---<12>-----|---2-2---|-----4-----|

183.

|-----|--9--11--|-12--------|--9---------|---------------|-0---2-2-|---4-------|

184.

|-----|------9--|-10--------|-------9----|---------------|-----0---|-2---------|

185.

|-----|---------|-----------|------------|---------------|---------|-----------|

186.
187.
188.

EEEE EEESS

EE E E

E E ESS

189.

|-2---0---|-------7-9-|-10---------|----------7-9-|

190.

|-0---2-3-|-3---7-----|--7-7-10----|-12----12-----|

191.

|---0---2-|---2-------|-------9----|-11-----------|

192.

|---------|-0---------|--9------11-|-12-12--------|

193.

|-----0---|-----------|-------9----|-10-----------|

194.

|-3-------|-----------|-------9----|--------------|

195.
196.
197.

EE E E

EE E SS EEEE EEESS

198.

|-10---12-10-|-10--------5-3-|-2-----5-|---------0-|

199.

|--7-7-10----|--8-8-<12>-3---|-----5---|-3-----3---|

200.

|------------|--0---<12>-----|---2-2---|-----4-----|

201.

|--9---------|---------------|-0---2-2-|---4-------|

202.

|-------9----|---------------|-----0---|-2---------|

203.

|------------|---------------|---------|-----------|

204.
205.
206.

E E E E Q. +S S E E E E E E E E E E E E E E E E E E E E

207.

|-2---0---|------------|-0-------|-------0-|-0-------|---------|-0--------|

208.

|-0---2-3-|-3----(3)---|-----2---|-2---2---|-----3---|-0---0---|----------|

209.

|---0---2-|----------2-|-----2---|-2---2---|-0---4---|---------|-2---2----|

210.

|---------|-4----(4)---|---2---2-|---2---2-|---0---0-|---0---0-|---2---2--|

211.

|-----0---|-5----------|-0-------|---------|---------|---------|-0--------|

212.

|-3-------|------------|---------|---------|-3-------|---------|----------|

213.
214.

215.

E E E E E E E E E E E E E E E E E E E E E E E E Q.

S S

216.

|-------0-|-0-------|---------|---------|-5-----3-|-0-------|------||-9-11--|

217.

|---------|---------|-0---0-2-|-3-------|-5-------|-------2-|------||-------|

218.

|-2---2---|-0---0---|-0---0---|---------|-0---0---|-----2---|-2----||-------|

219.

|---2---2-|---0---0-|---0---0-|-4-0-4-0-|---0-----|---2-----|-2----||-------|

220.

|---------|---------|---------|---------|---------|-0-------|-0----||-------|

221.

|---------|-3-------|---------|-2-------|---------|---------|------||-------|

222.
223.
224.

Q Q

Q.

Q E E

Q. S S Q E E Q. E

225.

|-12------|-------11-|-12--14-12-|-12----7-5-|-4----7-|------2-|

226.

|--9--12--|-14-------|--9--12----|-10--------|-0--7---|-5------|

227.

|-----11--|-13-------|-----------|-----------|--------|-6------|

228.

|-11--13--|-14-------|-11--------|-----------|-2--9---|-6------|

229.

|-----11--|-12-------|-----11----|--0--------|----9---|-4------|

230.

|---------|----------|-----------|-----------|----7---|--------|

231.
232.
233.

Q E E Q. S S Q Q

Q. E E E E E Q. S S

234.

|-4--2---|----------|-------|--------|---------|-0---------|

235.

|-2--4-5-|-5----2-4-|-5-----|-2----4-|-5---7-5-|-2----0----|

236.

|--------|-6--------|----4--|-1------|-6---4---|-2------2--|

237.

|--------|-6--------|-6--4--|-2------|-6-6-----|-----------|

238.

|-0--2---|-4--------|-4--6--|-0------|-4-------|-0---------|

239.

|--------|----------|----4--|--------|-----4---|-----------|

240.
241.
242.

Q E E Q. S S Q E E Q.

S S

E E E E

E E ESS

243.

|--------|----------|--------|------12-14-|-16----14----|-12----12-0-2-|

244.

|------0-|----------|--------|------------|-14----16-17-|--------------|

245.

|-1------|----------|--------|------------|----14-------|----13--------|

246.

|-2--4---|-2----2-4-|-6--4-2-|-2----------|-14----------|-11-----------|

247.

|-2--2---|-4--------|-4--2---|-4----------|--0----14----|--------------|

248.

|-0------|----------|-5------|------------|-------------|--------------|

249.
250.
251.

Q E E E E S S T T T T T T T T T T S T T T T T S. T T T T T

252.

|-4--2-0-|-0-------------0-|-------------0---------0-5--|-------------9--|

253.

|----0---|-2---2-4---0-2---|-----------2----------------|----------10----|

254.

|-2------|-2-------2-------|-----2---2---------2-1------|--------9-------|

255.

|--------|-2-2-------------|---2---2---------2----------|----------------|

256.

|--------|-0---------------|-0-------------0------------|-0--------------|

257.

|--------|-----------------|----------------------------|---<12>---------|

258.

259.
260.

T T

T T T S.

261.

|----------------9-12-----|

262.

|-------------10----------|

263.

|-------------------------|

264.

|-------------------------|

265.

|-0------<12>-------------|

266.

|---<12>------------------|

267.
268.
269.

Duration Legend

270.

---------------

271.

W - whole; H - half; Q - quarter; E - 8th; S - 16th; T - 32nd; X - 64th; a - acciaccatura

272.

+ - note tied to previous; . - note dotted; .. - note double dotted

273.

Uncapitalized letters represent notes that are staccato (1/2 duration)

274.

Irregular groupings are notated above the duration line

275.

Duration letters will always appear directly above the note/fret number it represents

the
276.

duration for. Duration letters with no fret number below them represent rests. Multi-

277.

bar rests are notated in the form Wxn, where n is the number of bars to rest for. Low

278.

melody durations appear below the staf

279.

280.

Tablature Legend

281.

----------------

282.

h - hammer-on

283.

p - pull-of

284.

b - bend

285.

pb - pre-bend

286.

r - bend release (if no number after the r, then release immediately)

287.

/\ - slide into or out of (from/to "nowhere")

288.

s - legato slide

289.

S - shift slide

290.

<n> - natural harmonic

291.

[n] - artificial harmonic

292.

n(n) - tapped harmonic

293.

~ - vibrato

294.

tr - trill

295.

T - tap

296.

TP - trem. picking

297.

PM - palm muting

298.

\n/ - tremolo bar dip; n = amount to dip

299.

\n - tremolo bar down

300.

n/ - tremolo bar up

301.

/n\ - tremolo bar inverted dip

302.

= - hold bend; also acts as connecting device for hammers/pulls

303.

<> - volume swell (louder/softer)

304.

x - on rhythm slash represents muted slash

305.

o - on rhythm slash represents single note slash

306.
307.

Misc Legend

308.

-----------

309.

| - bar

310.

|| - double bar

311.

||o - repeat start

312.

o|| - repeat end

313.

*| - double bar (ending)

314.

: - bar (freetime)

315.

$ - Segno

316.

& - Coda

317.

Tempo markers - <E/E./Q/Q./H/H.> = BPM(8/16=s8/s16), where s8 = swing 8ths, s16 =

swing 16ths