Sunteți pe pagina 1din 3

twenty one pilots Heathens

fingerstyle guitar cover by Peter Borics

Intro:
E
B
G
D
A
E

:--0---0---0---0-|0---------------|--0---0---0---0-|0-------------0-|
:--1---1---1---1-|--0---0---0---0-|--1---1---1---1-|--0---0---0-3---|
:4---4-0-4---4-0-|----------------|4---4-0-4---4-0-|----------------|
:----------------|2---2---2---2---|----------------|2---2---2---2---|
:3-------0-------|----------------|3-------0-------|----------------|
:----------------|----------------|----------------|----------------|

E
B
G
D
A
E

:------0-------0-|0-------------0-|------0-------0-|0---------------|
:3-1-----3-1-----|--0---0---0-----|3-1-----3-1-1---|--0---0---------|
:0-------2-------|----------------|0-------2-------|----------------|
:----------------|2---2---2---2---|----------------|2---2---2-------|
:3---3---0---0---|----------------|3---3---0---0---|----------------|
:----------------|----------------|----------------|----------------|

1st verse:
E
B
G
D
A
E

:------------------------|----------------------|
:0-0-0-------------------|----------------------|
:0-----2-2-2-2-2-2-0-h2-2|2-p0-----2-2-p0-------|
:------------------------|-----2----------2---2-|
:3-----------0-----------|----------------------|
:------------------------|0------0---0------0---|

E
B
G
D
A
E

:------------------------|----------------------|
:0-0-0-------------------|----------------------|
:0-----2-2-2-2-2-2-0-h2-2|2-p0-----2-2-p0-------|
:------------------------|-----2----------2---2-|
:3-----------0-----0-----|----------------------|
:------------------------|0------0---0------0---|

E
B
G
D
A
E

:------------------------|------------------------|
:------0-0-0-------------|------0-0-0-------------|
:----0-------2-2-2-2-p0-0|----0-------2-2-2-2-p0-0|
:--2---------------------|--2---------------------|
:3-----------0-----0-----|------------------------|
:------------------------|0-----0-----0-----0-----|

E
B
G
D
A
E

:------------------------|------------2-2---|----------3-2---2------|
:------0-0-0------------0|------0-0-------0-|------0-----0---0-0---0|
:----0-------2-2-2-2-p0--|----2-----2-------|----2---2---2---2------|
:--2---------------------|--1---------------|--1-------------1------|
:3-----3-----0-----0-----|2-----2---2---2---|2-------2---2---2---2--|
:------------------------|------------------|-----------------------|

Chorus:
E
B
G
D
A
E

:------------------|0---0---0-----0---|------------------|
:0-1-0---0---1-0---|--0-0-0-----0-0-0-|0-1-0---0---1-0---|
:0---0-0-2-----2-0-|----0---------0---|0---0-0-2-----2-0-|
:2-------------2---|----2---------2---|2-------------2---|
:3-------0-0-------|------------------|3-------0-0-------|
:------------------|0-------0-0-------|------------------|

E
B
G
D
A
E

:0---0---0-------0-|------0---------0-|0---0---0-----0-|
:--0-0-0-----0-3---|3-1-1---3---1-1---|--0-0-0---0-3---|
:----0-------------|0---0---2-----2---|----0-------0---|
:----2-------------|----2---------2---|----2-----------|
:------------------|3-------0-0-------|----------------|
:0-------0-0---0---|------------------|0-------0---0---|

E
B
G
D
A
E

:------0---------0-|0---0---0---0---|
:3-1-1---3---1-1---|--0-0-0---0-0-0-|
:0---0---2-----2---|----0-------0---|
:----2---------2---|----2-------2---|
:3-------0-0-------|----------------|
:------------------|0-------0-------|

2nd verse:
E
B
G
D
A
E

:-------------------------------|-------------------------------|
:----0-----0---------0-----0----|----0-----0---------0-----0----|
:--0-----2-----2---2-----0-----0|--0-----2-----2---2-----0-----0|
:-------------------------------|-------------------------------|
:3-----3-----3---3-----3-----3--|-------------------------------|
:-------------------------------|0-----0-----0---0-----0-----0--|

E
B
G
D
A
E

:-------------------------------|-------------------------------|
:----0-----0---------0-----0----|----0-----0---------3-----0----|
:--0-----2-----2---2-----0-----0|--0-----0-----0---0-----0-----0|
:-------------------------------|-------------------------------|
:3-----3-----3---0-----0-----0--|-------------------------------|
:-------------------------------|0-----0-----0---0-----0-----0--|

E
B
G
D
A
E

:-----------------------------------------|
:-----12------12-----------12------12-----|
:---0-------0-------0---14------12------12|
:-----------------------------------------|
:15------15------15---0-------0-------0---|
:-----------------------------------------|

E
B
G
D
A
E

:--------------------------------------|
:----12-----12----------12------12-----|
:--0------0------0---14------12------12|
:--------------------------------------|
:--------------------------------------|
:0------0------0---0-------0-------0---|

E
B
G
D
A
E

:-----------------------------------------|
:-----12------12-----------12------12-----|
:---0-------0-------0---14------12------12|
:-----------------------------------------|
:15------15------15---0-------0-------0---|
:-----------------------------------------|

E
B
G
D
A
E

:------0-------0-------------0-------0------|
:------0-------0-------------0-------0------|
:---14------14------14----14------14------14|
:-------------------------------------------|
:14------14------14----14------14------14---|
:-------------------------------------------|

E
B
G
D
A
E

:------15-------15-------14-14-14-14-x-x--|
:-------0--------0--------0-----0--0-x-x--|
:---14-------14-------14-14----14-14-x-x-x|
:------------------------13----13----x-x-x|
:14-------14-------14----14----14----x-x--|
:------------------------------------x-x--|

Chorus:
E
B
G
D
A
E

:------------------------|0---0---0-----x-x---|--------------------|
:0-0-1-1-0---0-0-1-1-0---|--0-0-0-----0-x-x---|0-1-0---0-0-1-1-0---|
:0-0-0-0-0-0-2-2-0-0-2-0-|----0---------x-x--x|0---0-0-2-2-0-0-2-0-|
:2-2-----2---2-2-----2---|----2---------x-x---|2---2---2-2-----2---|
:3-------3---0-----------|--------------x-x---|3-------0-----------|
:------------------------|0-------0-0---x-x-x-|--------------------|

E
B
G
D
A
E

:0---0---0-------0-|------0---------0-|0---0---0-------0-|
:--0-0-0-----0-3---|3-1-1---3---1-1---|--0-0-0-----0-3---|
:----0---------0---|0---0---2-----2---|----0---------0---|
:----2-------------|----2---------2---|----2-------------|
:------------------|3-------0-0-------|------------------|
:0-------0-0---0---|------------------|0-------0-0---0---|

E
B
G
D
A
E

:------0---------0-|0---0---0---0---|
:3-1-1---3---1-1---|--0-0-0---0-0-0-|
:0---0---2-----2---|----0-------0---|
:----2---------2---|----2-------2---|
:3-------0-0-------|----------------|
:------------------|0-------0-------|

Outro:
E
B
G
D
A
E

:----------------|----------------|----------------|--------------0-|
:--1-------1-----|----------------|--1-------1-----|----------------|
:4---4---4---4---|----------------|4---4---4---4---|----------------|
:------2-------2-|--2---2---2---2-|------2-------2-|--2---2---2-----|
:3-------0-------|----------------|3-------0-------|----------------|
:----------------|0---0---0---0---|----------------|0---0---0---0---|

E
B
G
D
A
E

:------0-------0-|0-------------0-|------0-------0-|0---------------|
:3-1-----3-1-----|--0---0---0-----|3-1-----3-1-1---|--0---0---------|
:0-------2-------|----------------|0-------2-------|----------------|
:----------------|2---2---2---2---|----------------|2---2---2-------|
:3---3---0---0---|----------------|3---3---0---0---|----------------|
:----------------|----------------|----------------|----------------|