Sunteți pe pagina 1din 11

Acorduri majore

C (Do major)
E||--0--------||
B||--1--------||
G||--0--------||
D||--2--------||
A||--3--------||
E||-----------||

D (Re major)
E||--2--------||
B||--3--------||
G||--2--------||
D||--0--------||
A||-----------||
E||-----------||

1
E (Mi major)
E||--0--------||
B||--0--------||
G||--1--------||
D||--2--------||
A||--2--------||
E||--0--------||

F (Fa major)
E||--1--------||
B||--1--------||
G||--2--------||
D||--3--------||
A||--3--------||
E||--1--------||

2
A (La major)
E||--0--------||
B||--2--------||
G||--2--------||
D||--2--------||
A||--0--------||
E||--0--------||

B (Si major)
E||--2--------||
B||--4--------||
G||--4--------||
D||--4--------||
A||--2--------||
E||--2--------||

3
Acorduri minore

Cm (C minor)
E||--3--------||
B||--4--------||
G||--5--------||
D||--5--------||
A||--3--------||
E||--3--------||

Dm (Re minor)
E||--1--------||
B||--3--------||
G||--2--------||
D||--0--------||
A||-----------||
E||-----------||

4
Em (E minor)
E||--0--------||
B||--0--------||
G||--0--------||
D||--2--------||
A||--2--------||
E||--0--------||

Fm (Fa minor)
E||--1--------||
B||--1--------||
G||--1--------||
D||--3--------||
A||--3--------||
E||--1--------||

5
Gm (Sol minor)
E||--3--------||
B||--3--------||
G||--3--------||
D||--5--------||
A||--5--------||
E||--3--------||

Am (La minor)
E||--0--------||
B||--1--------||
G||--2--------||
D||--2--------||
A||--0--------||
E||--0--------||

6
Bm (Si minor)
E||--2--------||
B||--3--------||
G||--4--------||
D||--4--------||
A||--2--------||
E||--2--------||

Septacorduri dominante

C7 (Do apte)
E||--0--------||
B||--1--------||
G||--3--------||
D||--2--------||
A||--3--------||
E||--0--------||

7
G (Sol major)
E||--3--------||
B||--0--------||
G||--0--------||
D||--0--------||
A||--2--------||
E||--3--------||

D7 (Re apte)
E||--2--------||
B||--1--------||
G||--2--------||
D||--0--------||
A||-----------||
E||-----------||

8
E7 (E apte)
E||--0--------||
B||--0--------||
G||--1--------||
D||--0--------||
A||--2--------||
E||--0--------||

Fm (Fa apte)
E||--1--------||
B||--1--------||
G||--2--------||
D||--1--------||
A||--3--------||
E||--1--------||

9
G7 (Sol apte)
E||--1--------||
B||--0--------||
G||--0--------||
D||--0--------||
A||--2--------||
E||--3--------||

A7 (La apte)
E||--0--------||
B||--2--------||
G||--0--------||
D||--2--------||
A||--0--------||
E||--0--------||

10
B7 (Si apte)
E||--2--------||
B||--0--------||
G||--2--------||
D||--1--------||
A||--2--------||
E||-----------||

11