Sunteți pe pagina 1din 4

Robin Schulz feat.

James Blunt
OK
fingerstyle guitar cover by Peter Borics

capo on the 3th fret


standard tuning
sequence of parts: 1,2,3,chorus,5,2,3,chorus

1st part:
E :----------------|0---0-----------|----------------|2---------3-3-p0-0|
B :0---0---0---0---|1---1---3---3---|3---3---3---3---|3-----------------|
G :0---0---0---0---|0---0---0---0---|0---0---0---0---|2-----------------|
D :2---2---2---2---|----------------|----------------|0-----------------|
A :----------------|--3---3---3---3-|----------------|------------------|
E :0-0---0---0---0-|----------------|--3---3---3---3-|------------------|

E :----------3-3-p0-0|--------------------|------------------|
B :--0---------------|--3-3-p0-0-----0-0-0|----------0-0-----|
G :--0---------------|--0------------0----|------0-------h2-2|
D :------------------|-------------2------|---0--------------|
A :------------------|3----------3--------|------------------|
E :0-----0-----------|--------------------|3-----------------|

E :----------3-3-p0-0|----------3-3-p0-0|--------------------|
B :------3-----------|--0---------------|--3-3-p0-0-----0-0-0|
G :---2--------------|--0---------------|--0------------0----|
D :0-----------------|------------------|-------------2------|
A :------------------|------------------|3----------3--------|
E :------------------|0-----0-----------|--------------------|

E :------------------|----------------|
B :----------0-0-----|------3---------|
G :------0-------h2-2|---2------------|
D :---0--------------|0---------------|
A :------------------|----------------|
E :3-----------------|----------------|
part 5

2nd part:
E :--------------0---|0-0-0-0----0-p3--3-0---|0-p3--3-0----0-------0---|
B :----------------h3|1---1---h3-1-----1---h3|1-----1---h3-----3-----h3|
G :------------------|0---0------0-----0-----|0-----0--------0---2-----|
D :------------0-----|-----------------------|-----------------0-------|
A :------------------|3----------3-----------|3------------3-----------|
E :------------------|----x------------x-----|------x------------------|

E :0-0-0-0----0-p3--3---|----0---0-------0---|0-0-0-0----0-p3--3-0---|
B :----0---h3-------0-3-|----3-------3-3---h3|1---1---h3-1-----1---h3|
G :----0------------0---|--2-2-2-------2-----|0---0------0-----0-----|
D :---------------------|0---------0---0-----|-----------------------|
A :---------------------|--------------------|3----------3-----------|
E :0---x------0-----x---|----x---------x-----|----x------------x-----|

E :0-p3--3-0----0-------0---|0-0-0-0----0-p3--3---|-------------------|
B :1-----1---h3-----3-----h3|----0---h3-------0-3-|3------------------|
G :0-----0--------0---2-----|----0------------0---|2--s-s--s----------|
D :-----------------0-------|---------------------|0------------------|
A :3------------3-----------|---------------------|-------------------|
E :------x------------------|0---x------0-----x---|-------------------|

3th part:
E :------------------|-----------------0|--3-0---------------|
B :----------0-0-----|------------0-h3--|------3-p0---0-0-0-0|
G :--------------2-p0|----------0-------|--------------------|
D :------------------|--2---2-----------|--------------------|
A :------------------|------------------|3---3------3---3----|
E :------------------|0---0---0---0-----|--------------------|

E :------------------|------------------|-----------------0|
B :--------1---0-----|----------0-0-----|------------0-h3--|
G :--0-0-0---------2-|--2---2-------2-p0|----------0-------|
D :------------------|0---0---0---0-----|--2---2-----------|
A :------------------|------------------|------------------|
E :3---3-----3---3---|------------------|0---0---0---0-----|

E :--3-0--------------|--------------------|----------------|
B :------3-p0---0-0-0-|0---------1---0-----|3---------------|
G :-------------------|--h2-p0-0---------2-|2---------------|
D :-------------------|--------------------|0---------------|
A :3---3------3---3---|--------------------|----------------|
E :-------------------|3-------3---3---3---|----------------|
chorus:

E :-----------------------|--------<12>-------3-----3-/5-5-0|
B :-----------------------|0-------<12>-------------0----0-0|
G :------0--2/4\2p0--2-p0-|0-------<12>---0-------0-0----0-0|
D :-----------------------|2-------<12>h2-2-----------------|
A :-----------------------|2-sss-s-<12>h2-2-----------------|
E :-----------------------|0-------<12>---0-0---0-----------|

E :0--0-0-0-0-0--0-0-0-0-0-0-0-0|3-------<12>h3-3---3-----3-3-0|
B :3--3-3-3-3-3--3-3-3-3-3-3-3-3|0-------<12>---0---------0-0-0|
G :0--0-0-0-0-0--0-0-0-0-0-0-0-0|0-------<12>---0-------0-0-0-0|
D :2--2-2-2-2-2--2-2-2-2-2-2-2-2|0-------<12>---0---------0----|
A :3--3-3-3-3-3--3-3-3-3-3-3-3-3|2-sss-s-<12>h2-2---------2----|
E :-----------------------------|3-------<12>h3-3-3---3--------|

E :2-2-2-2x--------------------|--------<12>-------3-----3-/5-5-0|
B :3-3-3-3x--------------------|0-------<12>-------------0----0-0|
G :2-2-2-2x---0--2/4\2p0--2-p0-|0-------<12>---0-------0-0----0-0|
D :0-0-0-0x--------------------|2-------<12>h2-2-----------------|
A :-------x--------------------|2-sss-s-<12>h2-2-----------------|
E :----------------------------|0-------<12>---0-0---0-----------|

E :0--0-0-0-0-0--0-0-0-0-0-0-0-0|3-------<12>h3-3---3-----3-3-0|
B :3--3-3-3-3-3--3-3-3-3-3-3-3-3|0-------<12>---0---------0-0-0|
G :0--0-0-0-0-0--0-0-0-0-0-0-0-0|0-------<12>---0-------0-0-0-0|
D :2--2-2-2-2-2--2-2-2-2-2-2-2-2|0-------<12>---0---------0----|
A :3--3-3-3-3-3--3-3-3-3-3-3-3-3|2-sss-s-<12>h2-2---------2----|
E :-----------------------------|3-------<12>h3-3-3---3--------|

1. 2.

E :2--------------|2-----------------------|----------------||
B :3--------------|3-----------------------|----------------||
G :2--------------|2------0--2/4\2p0--2-p0-|0---------------||
D :0--------------|0-----------------------|2---------------||
A :---------------|------------------------|2---------------||
E :---------------|------------------------|0---------------||
part 5
5th part:

E :--------3-3-p0-0|----0-----3-3-p0-0|--------------------|
B :----------------|--0-0-0-----0-----|--3-3-p0-0-----0-0-0|
G :----------------|----0-------0-----|----0--------0-0----|
D :----------------|------------------|----2----------2----|
A :----------------|------------------|3----------3--------|
E :----------------|0---x---0---x-----|----x----------x----|

E :------------------|------------7-/5-5|----5-------7-/5-5|
B :----0-----0-0-----|----3-------x-----|--5-5-5---0-x-----|
G :--0-0-0-----x-h2-2|--2-2-2---0-x-----|----0-------x-----|
D :----0-------------|0---0---0---x-----|------------x-----|
A :------------------|------------------|------------------|
E :3---x---3---x-----|----x-------x-----|0---x---0---x-----| part 2

E :----5-------5-3-|----3-------3h5p0h2|------------2-0-|0-0-0-0----0-p3-
B :--5-5-5---5-x---|--0-0-0---0-0------|----3-------3---|1---1---h3-1----
G :----0-------x---|----0-------0------|--2-2-2---2-2---|0---0------0----
D :----------------|-------------------|0-------0-------|----------------
A :3-------3-------|-------------------|----------------|3----------3----
E :----x-------x---|3---x---3---x------|----x-------x---|----x-----------