Sunteți pe pagina 1din 1

19/08/2016 Cifra Club ­ Os Arrais ­ Oração

Oração
Os Arrais
Composição: Tiago Arrais

Tom: D

Drop D| F#/D Em7


E pela fé caminho até avistar o autor da
Intro: Riff 1 Riff 2
minha fé
Riff 1 F#/D Em7
e|---------------------------------| E o que eu posso oferecer para honrar quem
B|---------------------------------| ele é
G|---------------------------------| A G A G
D|----2---4---4---2---2---4---4----| Santo, santo, anjos cantam, santo
A|---------------------------------| A G
D|--0---0---0---0---0---0---0---0--| E ao partir me vi, eu sou indigno
A G
Riff 2 Mas sua voz me diz não vá meu filho
e|------------------------------------------
B|------------------------------------------ (Refrão)
G|------------------------------------------ D/A D/G
D|----2---4---4---4---4---4---4---2---2---2- Torne meu sofrimento em testemunho
A|------------------------------------------ D/A D/G
D|--0---0---0---0---0---0---0---0---0---0--- Me esvazie de mim e desse mundo
e|-----------| A G
B|-----------| E que o meu nome morra com meu corpo
G|-----------| A G
D|--2---2----| E que o de Cristo permaneça em tudo
A|-----------|
D|0---0---0--| D/A D/G
Que eu receba aquilo que preciso e nem um
Forma de acordes: pouco mais
E/D F#/D Em7 A/E G D/A D/G D/A D/G
e|--x-----x-----0-----x-----0-----x-----5--| Me de os bens que de imediato eu possa
B|--x-----x-----3-----5-----0-----7-----5--| abandonar
G|--x-----x-----0-----7-----0-----7-----7--| A G A G
D|--2-----4-----0-----7-----5-----0-----5--| Santo, santo, anjos cantam, santo
A|--x-----x-----2-----x-----5-----5-----5--|
D|--0-----0-----x-----0-----5-----7-----5--| (Refrão)
F#/D Em7 D/A D/G
Em oração eu trilho o caminho que Jesus abriu Torne meu sofrimento em testemunho
Riff 2 D/A D/G
Me esvazie de mim e desse mundo
F#/D Em7 A G
Até o trono onde sua graça flui como um rio E que o meu nome morra com meu corpo
A G A G Riff 2 A G
Santo, santo, anjos cantam, santo E que o de Cristo permaneça em tudo
A G A G
No nome de Cristo, no nome de Cristo

Amem

https://www.cifraclub.com.br/os­arrais/oracao/imprimir.html#footer­chords=false 1/2