Sunteți pe pagina 1din 35

Tal vez te parezca raro nombrar las

Tenemos que memorizar ésta tabla: notas por nombre de letras pero más
A = LA E = MI adelante te darás cuenta lo útil que es.
Si pasas ésta lección sin saber de
B = SI F = FA
memoria la letra que representa a cada
C = DO G = SOL
nota, lo más seguro es que te atores. Si
D = RE -
te da un poco de flojera aprenderte
esto de memoria, te recomiendo tener
ésta tabla a la mano, para las
siguientes lecciones.

Ejemplos de los cifrados para acordes:

G = Sol mayor Gm = Sol menor G7 = Sol séptimo


Gm7 = Sol menor séptimo Gb = Sol bemol G# = Sol sostenido

la balada del pistolero


Tono: B
F#
G
G#
A(disminuir uno tono)
Bb(disminuir uno semi-tono)
B(tono original)
C(aumentar uno semi-tono)
C#(aumentar uno tono)
D
Eb
E
F

Intro

B
e|--------7-7--7-7--8-7--7----8-7--7--------|
B|------8-8-8--8-8--8-8--8-8--8-8--8-8--10--|
G|----9--------------------9---------9--11--|
D|--9---------------------------------------|
A|------------------------------------------|
E|------------------------------------------|
Em
e|-------5-5--5-5--7-5--5-5-7--5-5----------|
B|-------7-7--7-7--7-7--7-7-7--7-7--7--8----|
G|----8-----------------------------8--9----|
D|--9---------------------------------------|
A|------------------------------------------|
E|------------------------------------------|

Verso 1

(Em) B
Soy un hombre muy honrado, que me gusta lo mejor(riff 1)
Em
A mujeres no me faltan, ni el dinero, ni el amor(riff 2)
B
Jineteando en mi caballo, por la sierra yo me voy(riff 3)
Em
Las estrellas y la luna ellas me dicen donde voy

riff 1 riff 2 riff 3


e|------------|--8-7-5------|------5-8--7---5-8--7------5-8--7--|
B|---------7--|--------8-5--|--5-8------------------------------|
G|------8-----|-------------|-----------------------------------|
D|----9-------|-------------|-----------------------------------|
A|--9---------|-------------|-----------------------------------|
E|------------|-------------|-----------------------------------|

Estribillo
(Ay, ay, ay, ay.......)

Am Em B Em
e|--8-------8----8-7------7---7-5------5---5-3------3---3-------|
B|----10------10-----8------8-----7------7-----5------5---------|
G|-------9-------------9------------8------------4--------------|
D|--------------------------------------------------------------|
A|--------------------------------------------------------------|
E|--------------------------------------------------------------|
Am Em B Em
e|--8-------8----8-7------7---7-5------5------------------------|
B|----10------10-----8------8-----7------8-7-5------------------|
G|-------9-------------9------------8---------------------------|
D|--------------------------------------------------------------|
A|--------------------------------------------------------------|
E|--------------------------------------------------------------|

Interlude

B
e|------7-7--7-7--8-7--7----8-7--7--------|
B|----8-8-8--8-8--8-8--8-8--8-8--8-8--10--|
G|--9--------------------9---------9--11--|
D|----------------------------------------|
A|----------------------------------------|
E|----------------------------------------|

Em
e|-------5-5--5-5-5h7--5-5--5--7-5--5--------|
B|-------7-7--7-7-7-7--7-7--7--7-7--7--------|
G|----8-------------------------------7-8----|
D|--9---------------------------------8-9----|
A|-------------------------------------------|
E|-------------------------------------------|

Verso 2

B
Me gusta tocar guitarra, me gusta cantar el son(riff 1)
Em
Mariachi me acompaña cuando canto mi canción(riff 2)

B
Me gusta tomar mis copas(riff 3), agua ardiente es lo mejor
Em
Tambien el tequila blanco con su sal le da sabor
riff 1 r. 2 riff 3 durante 'blanco'
e|--7--7\-- --7---|--8-7-5------------7-7--|-------------------|
B|--7--7\-- --8---|--------8-5--5-5-5------|--7h8p7--5-3-------|
G|--8--8\-- x4 --9---|------------------------|--------------5-4--|
D|--9--9\-- --9---|------------------------|-------------------|
A|--------- --7---|------------------------|-------------------|
E|--------- --7---|------------------------|-------------------|

(Estribillo)

Solo (un poco difícil, toma el ritmo)

Em Em
e|--7-----7-12-7----7---7-11-7----7---7-11-7----7---7-12-7----7---7-12-7---
-7----|
B|-----10--------10---0--------10---0--------10---0--------10---0--------
10---0--|
G|-------------------------------------------------------------------------
------|
D|-------------------------------------------------------------------------
------|
A|-------------------------------------------------------------------------
------|
E|-------------------------------------------------------------------------
------|

B Em
e|--7-11-7----7---11----7---11----7---12----7---12----7---12---10----------
------|
B|---------10---0----10---0----10---0----10---0----10---0----7-------------
------|
G|-------------------------------------------------------------------------
------|
D|-------------------------------------------------------------------------
------|
A|-------------------------------------------------------------------------
------|
E|-------------------------------------------------------------------------
------|

B Em B
Em
e|--10-8-10-8-7-8-7-5-7-5-3-5-3-2-3-2---2----------------------------------
----------|
B|------------------------------------5---3-5-3-1-3-1-0------0-------------
----------|
G|--------------------------------------------------------2-----5-4-2-0----
----------|
D|-----------------------------------------------------------------------5-
4-2-0-----|
A|-------------------------------------------------------------------------
-------2--|
E|-------------------------------------------------------------------------
----------|

B Em B Em
e|---------------------------------------------7--5--3--2-0----------------
------|
B|--0--0--4-5-7---0--0--5-7-8---0--0--4-5-7--0------------0----------------
------|
G|---------------------------------------------7--5--3--2-0----------------
------|
D|--------------------------------------------------------2----------------
------|
A|--------------------------------------------------------2----------------
------|
E|--------------------------------------------------------0----------------
------|

(golpeando la guitarra)

B
Me gusta tocar guitarra, me gusta cantar el son(riff 1)
Em
Mariachi me acompaña cuando canto mi canción

B
Me gusta tomar mis copas(riff 2) agua ardiente es lo mejor
Em
tambien el taquila blanco, con su sal le da sabor

riff 1 riff 2 durante 'sal'


e|--5h7p5h7-5------|------7------7-5-8--7--|--3-2-0-2------|
B|------------7-4--|--5-8---8-5------------|----------5----|
G|-----------------|-----------------------|---------------|
D|-----------------|-----------------------|---------------|
A|-----------------|-----------------------|---------------|
E|-----------------|-----------------------|---------------|

Estribillo

Am Em B Em
e|-------8--8--------7--7-------5--5-------3--3---------|
B|----10-10-10-----8-8--8-----7-7--7-----5-5--5---------|
G|--9------------9----------8----------4----------------| (2x)
D|------------------------------------------------------|
A|------------------------------------------------------|
E|------------------------------------------------------|

Am Em B Em
e|-----8---8-------7--7------5--5------3--3-------------|
B|-----10--10------8--8------7--7------5--5-------------|
G|---9-9---9-----9-9--9----8-8--8----4-4--4-------------| (2x)
D|------------------------------------------------------|
A|------------------------------------------------------|
E|------------------------------------------------------|

Em
......de mi corazooooooooooooooooon!

en esta parte tienes que variar tremolo:

e|-12121212-12-12-12-12-12-12-1212121212121212--12------|
B|------------------------------------------------------|
G|------------------------------------------------------|
D|------------------------------------------------------|
A|------------------------------------------------------|
Arpegio en la entrada

E
e|-2-----2-0-------|
b|---0-------0---0-|
g|-----1-------1---|
d|-2-------2-------|
a|-----------------|
E|-----------------|

Solo

e|----------------------------------------------|
b|--------------9-7v----------------------------|
g|----------6-8-------9-8-9--9-6----6-8/9-8-6---|
d|----6-7-9----------------------9------------9-|
a|-/7-------------------------------------------|
E|----------------------------------------------|

e|-7(x3)-------------------------------------------------------|
b|-------10-10--9-9--7/9------12---10-9-7----------------------|
g|-----------------------9----------------9-8-6-8-9-8--6-6/8---|
d|--------------------------9----9---------------------------9-|
a|-------------------------------------------------------------|
E|-------------------------------------------------------------|

RIFF 1 RIFF 2
e|------------------|-12--11--9-7-|
b|-10-9-7-----------|-12--12--9-9-|
g|--------9-8-6-8-9-|-------------|
d|------------------|-------------|
a|------------------|-------------|
E|------------------|-------------|

RIFF 3 RIFF 4
e|-----------------------|-7---------|
b|--------------9-7v-----|---10--8/9-|
g|----------6-8------9-9-|-----------|
d|----6-7-9--------------|-----------|
a|-/7--------------------|-----------|
E|-----------------------|-----------|
=CORO FINAL=

E B
pero no vino nunca no llego
C#m G#m
y mi vestido azul se me arrugo
A E
esta esquina no es mi esquina
F#m B(RIFF 1)
y este amor ya no es mi amor

E B
pero no vino nunca no llego
C#m(RIFF 2) G#m
y yo jamas sabre lo que paso
A E
me fui llorando despacio
F#m B(RIFF 3)
me fui dejando el corazón...

A E

A B(RIFF 4) E
Y el no vino nunca, no llego

esta va para evelyn contreras.


t kiero mxo mxo mxo!!! mi niñita
curanilahue 2005

alex ubago

Rating: 3.9/10 (19 votos)

. . . . . . . . .
h = Hammer
on golpear
encendido

p = Pull
off
arrastrar
. apagado

/ = Slide
deslizarse
Intro:

G D Em Bm C
e|--------------------------0h2-3--3-2-------------|
B|-------------0h1--1s3-3--------------3-3s5-5-----|
D|-0h2--2s4-4--------------------------------------|
G|-------------------------------------------------|
A|-------------------------------------------------|
E|-------------------------------------------------|

G D Em D C Bm C
e|----------------------------------------------------------|
B|---3h5p3--1-0----1h3p1--0---------------------------------|
D|--------------------------2-----0--2--4--2--0-------0-----|
G|-----------------------------------------------4--4----2--|
A|----------------------------------------------------------|
E|----------------------------------------------------------|

Sol Re Mim Sim Do


A pesar que la luna no brille mañana,
Sol Re Mim Sim
dará igual, solo verte reir es lo que me hace feliz,
Do
mi alma...

Sol Re
Y es verdad que una mirada distinta
Mim Sim Do
o algun gesto más frio se clava
Sol Re
en mi pecho, daga del desconcierto,
Mim Re Do Sim Do
pero amor, ahí está la magia.

Do Re
Ahora que te veo niña, ya te echo de menos,
Sol FA#/SOL Mim
no imagino mis heridas si algun dia te vas lejos.
Do Re
Querria..... por esto...

Sol Re
si preguntan por mi
Mim Sim
no les digas donde fui,
Do
que tu alma sea fuerte
Re
cuando mires hacia el frente
Sol FA#/SOL Mim
no recuerdes todo lo que no te di.

Do
Y es que quedan tantas cosas
Re
por contarte y que me cuentes.
Sol FA#/SOL Mim
Tantos ratos y pasiones por vivir...
Do Re
a tu lado...oh mi vida...
Sol
a tu lado...
solo

G D Em Bm
e|----7-8-10---8-7-------------------7-8--------------------------|
B|----8-------------10s12-10---8s10-------10s12--------7-8-10-----|
D|----7------------------------------------------7h9----------7---|
G|----------------------------------------------------------------|
A|----------------------------------------------------------------|
E|----------------------------------------------------------------|

C Bm G F#/G Em
e|---------8-8--8-8---7--5---7---------------7-------7------------|
B|--------------------------------------7--8---8--7----7----------|
D|--7s9-9--9-9--9-9---7--7-7---7-7-7--9----7------7--------9------|
G|-----------------------------0---------------------------9------|
A|----------------------------------------------------------------|
E|----------------------------------------------------------------|

C D
e|-------------------------------------------------7h8h10p8p7------|
B|--8--7--5----8--7------5--7------------5h7s8s10-------------10-8-|
D|--9--7--5----9--9----7-------------5h7---------------------------|
G|-------------------7-----------7h9-------------------------------|
A|-----------------------------------------------------------------|
E|-----------------------------------------------------------------|

Sol Re Mim Sim Do


Y Ojalá, que nuestros ojos si brillen... mañana,
Sol Re
que tu voz siga pidiendome a gritos amor,
Mim Re Do Sim Do
a gritos de esperanza.

Do Re
ahora que te tengo no pienso perder el tiempo
Sol FA#/SOL Mim
ni perderme por mi absurdo ego ni un solo momento,
Do Re
se esfuma...el miedo...

Sol Re
si preguntan por mi
Mim Sim
no les digas donde fui,
Do
que tu alma sea fuerte
Re
cuando mires hacia el frente
Sol FA#/SOL Mim
no recuerdes todo lo que no te di.

Do
Que tu luz brille por siempre
Re
porque tu te lo mereces
Sol FA#/SOL Mim
y perdona si algun día pretendí
Do Re
que no fueras...Oh tu misma...
Sol Re
si preguntan por ti,
Mim Sim
solo diré que te vi
Do Re
en mis sueños una noche y sólo sueño desde entonces
Sol FA#/SOL Mim
para verme cada día junto a ti.

Do
Y es que quedan tantas cosas
Re
por contarte y que me cuentes.
Sol FA#/SOL Mim
Tantos ratos y pasiones por vivir...
Do Re
a tu lado...oh mi vida...
Sol
a tu lado...

G D Em D Bm C G
e|----------------5-3-2----3------3-----2-------2----------------0----0----
--3-|
B|--8--8-10-8-7---7-5-3---5-----5------3------3--------3---3----1----1-----
-3--|
G|-----------------------4----4-------2-----2---------4---4----0----0------
0---|
D|---------------------------------------------------4---4----2----2------
0----|
A|-----------------------------------------------------------------------2-
----|
E|----------------------------------------------------------------------3--
----|

CHORDS:
G D Em Bm C F#/G
e|-3--2--0--4---0---3----|
B|-3--3--3--3---1---3----|
G|-0--2--0--4---0---X----|
D|-0--0--2--4---2---X----|
A|-2--0--2--2---3---X----|
E|-3--X--0--X---3---2----|

Sin bandera

E-----------------------5---------------------------------------------|
A-3----------------------7----------------------3---------------------|
D---5---------------------5------------------------5------------------|
G-----5------9-7-4---------5-------14-12-9------------5------9-7-4----|
B-------3-5---------3-5-----5----------------10----------3-5-------3-5|
e------------8-7-3-----------------13-12-8-------------------8-7-3----|
E--------------------------
A-5-----7------8-----------|
D---7-----9-----10---------|
G-----5-----7-----10-------|
B------6-----8------8------|
e---------------------8----|

Do Fa
Buenas noches, mucho gusto, eras una chica mas
Do Fa
después de cinco minutos ya eras alguien especial
Rem MIm
Sin hablarme, sin tocarme, algo dentro se encendió
Rem Fa
en tus ojos se hacia tarde y me olvidaba del reloj.

Do Fa
Estos días a tu lado me enseñaron que en verdad
Do Fa
no hay tiempo de terminado para comenzar a amar
Rem Mim
Siento algo tan profundo que no tiene explicación
Rem Fa sol
no hay razón ni lógica en mi corazón.

Do lam
Entra en mi vida, te abro la puerta
Rem Fa Sol
se que en tus brazos ya no habrá noches desiertas
Do lam
Entra en mi vida, yo te lo ruego
Rem Mim Fa
te comencé por extrañar, pero empecé
Sol Do
a necesitarte luego.

Do Fa
Buenas noches, mucho gusto, ya no existe nadie mas
Do Fa
después de este tiempo juntos, no puedo volver atrás
Rem Mim
Tu me hablaste, me tocaste y te volviste mi ilusión
Rem Fa Sol
quiero que seas dueña de mi corazón.

Do lam
Entra en mi vida, te abro la puerta
Rem Fa Sol
se que en tus brazos ya no habrá noches desiertas
Do lam
Entra en mi vida, yo te lo ruego
Rem Mim Fa
te comencé por extrañar, pero empecé
Sol Fa
a necesitarte luego.

Do Fa
Entra en mis horas, sálvame ahora
Rem Mim Fa Sol La
abre tus brazos fuerte y déjame entrar

Re sim
Entra en mi vida, te abro la puerta
Mim Sol La
se que en tus brazos ya no habrá noches desiertas
Re sim
Entra en mi vida, yo te lo ruego
MIm Fa#m Sol
te comencé por extrañar, pero empecé
La Re
a necesitarte luego ...

E-----------------------7--------------------------------------------|
A-5----------------------9--------------------5----------------------|
D---7---------------------7-----------------------7------------------|
G-----7------11-9-6--------7-------16-14-11-----------7-------11-9-6-|
B-------5-7---------5-7-----7----------------12----------5-7---------|
e------------10-9-5----------------15-14-10-------------------10-9-5-|
Te comencé por extrañar

E-------------------------------------------|
A-------7----------9------10----------------|
D----------9---------11-----12--------------|
G--------------7-------9------12------------|
B----5-7----------6------8------10----------|
e----------------------------------10-------|
pero empecé a necesi--taaaaaaaarte luego....

Esta es una transcripcion personal de un usuario de www.letrasyacordes.net


- El
material contenido en esta pagina es para exclusivo uso privado, quedando
prohibida su reproduccion o retransmision, asi cnes
comerciales.
ENTRA EN MI VIDA - Sin Bandera | Transcripta por Juan Carlos Perez
Martinez
=> | hits:
79-------------------------------------------------------------------------
---------------------
No hay información gráfica sobre los acordes. Estamos trabajando para
actualizar
esta canción.
---------------------------------------------------------------------------
-------------------

Que onda pues esta es la transcripcion correcta en guitarra de esta


rola, esta chida y fue el primer exito de Sin Bandera, espero que les
guste..... Saludos a la banda, y pues gracias a Luis que me la enseño.
intro:

E-----------------------5---------------------------------------------|
A-3----------------------7----------------------3---------------------|
D---5---------------------5------------------------5------------------|
G-----5------9-7-4---------5-------14-12-9------------5------9-7-4----|
B-------3-5---------3-5-----5----------------10----------3-5-------3-5|
e------------8-7-3-----------------13-12-8-------------------8-7-3----|

E--------------------------
A-5-----7------8-----------|
D---7-----9-----10---------|
G-----5-----7-----10-------|
B------6-----8------8------|
e---------------------8----|

Do Fa
Buenas noches, mucho gusto, eras una chica mas
Do Fa
después de cinco minutos ya eras alguien especial
Rem MIm
Sin hablarme, sin tocarme, algo dentro se encendió
Rem Fa
en tus ojos se hacia tarde y me olvidaba del reloj.

Do Fa
Estos días a tu lado me enseñaron que en verdad
Do Fa
no hay tiempo de terminado para comenzar a amar
Rem Mim
Siento algo tan profundo que no tiene explicación
Rem Fa sol
no hay razón ni lógica en mi corazón.

Do lam
Entra en mi vida, te abro la puerta
Rem Fa Sol
se que en tus brazos ya no habrá noches desiertas
Do lam
Entra en mi vida, yo te lo ruego
Rem Mim Fa
te comencé por extrañar, pero empecé
Sol Do
a necesitarte luego.

Do Fa
Buenas noches, mucho gusto, ya no existe nadie mas
Do Fa
después de este tiempo juntos, no puedo volver atrás
Rem Mim
Tu me hablaste, me tocaste y te volviste mi ilusión
Rem Fa Sol
quiero que seas dueña de mi corazón.

Do lam
Entra en mi vida, te abro la puerta
Rem Fa Sol
se que en tus brazos ya no habrá noches desiertas
Do lam
Entra en mi vida, yo te lo ruego
Rem Mim Fa
te comencé por extrañar, pero empecé
Sol Fa
a necesitarte luego.

Do Fa
Entra en mis horas, sálvame ahora
Rem Mim Fa Sol La
abre tus brazos fuerte y déjame entrar

Re sim
Entra en mi vida, te abro la puerta
Mim Sol La
se que en tus brazos ya no habrá noches desiertas
Re sim
Entra en mi vida, yo te lo ruego
MIm Fa#m Sol
te comencé por extrañar, pero empecé
La Re
a necesitarte luego ...

E-----------------------7--------------------------------------------|
A-5----------------------9--------------------5----------------------|
D---7---------------------7-----------------------7------------------|
G-----7------11-9-6--------7-------16-14-11-----------7-------11-9-6-|
B-------5-7---------5-7-----7----------------12----------5-7---------|
e------------10-9-5----------------15-14-10-------------------10-9-5-|
Te comencé por extrañar

E-------------------------------------------|
A-------7----------9------10----------------|
D----------9---------11-----12--------------|
G--------------7-------9------12------------|
B----5-7----------6------8------10----------|
e----------------------------------10-------|

pero empecé a necesi--taaaaaaaarte luego....

camila
Camila-Mientes

intro:

e|----------------|
b|------9---------|
g|--5-6---5-6-----| X3
D|------------8---|
A|----------------|
E|----------------|

e|----------------|
b|----------------|
g|------5------6--|
D|--5/6----6/8----|
A|----------------|
E|----------------|

G# F#
Tú llegaste a mi vida para enseñarme,
G# F#
tú, supiste encenderme y luego apagarme,
G# F#
tú, te hiciste indispensable para mi, y... y...

G# F# G#
Y con los ojos cerrados te seguÃ,
F# G#
si yo busqué dolor lo conseguÃ,
F# (Estribillo)
no eres la persona que pensé, que creÃ, que pedÃ.

C#9 A#m
Mientes, me haces daño y luego te arrepientes
F#
ya no tiene caso que lo intentes
G#
no me quedan ganas de sentir

C#9 A#m
Llegas cuando estoy a punto de olvidarte
F#
busca tu camino en otra parte
G#
mientras busco el tiempo que perdÃ
C#
y hoy estoy mejor sin ti.

G# F# G#
Voy de nuevo recordando lo que soy,
F# G#
sabiendo lo que das y lo que doy,
F#
el nido que buscaste para ti, y... y... y...

G# F# G#
Y el tiempo hizo lo suyo y comprendÃ
F# G#
las cosas no suceden porque si,
F# (estribillo)
no eres la persona que pensé, que creÃ, que pedÃ.

C#9 A#m
Mientes, me haces daño y luego te arrepientes
F#
ya no tiene caso que lo intentes
G#
no me quedan ganas de sentir

C#9 A#m
Llegas cuando estoy a punto de olvidarte
F#
busca tu camino en otra parte
G#
mientras busco el tiempo que perdÃ
C# A#m
y hoy estoy mejor sin ti,
F# G#
y hoy estoy mejor sin ti.

C#9 A#m
Llegas cuando estoy a punto de olvidarte
F#
busca tu camino en otra parte
G#
mientras busco el tiempo que perdÃ
F#
y hoy estoy mejor sin ti,
G#
y hoy estoy mejor sin ti,
F#
y hoy estoy mejor sin ti.

Aca te dejo este tutorial con el que aprendi yo..


EN CASO DE QUE SE CORRAN LAS TABLATURAS O NO SE ENTIENDA BIEN ENTREN EN LA FUENTE

La parte que más nos interesa aprender de la guitarra es el mástil. En el mástil se encuentran
los trastes, que son las subdivisiones que tiene el mástil. La guitarra tiene 6 cuerdas de
distinto grosor, la más fina y que está más abajo, es la denominada primera cuerda, la
siguiente es la segunda, y así hasta llegar a la sexta cuerda que es la más gruesa.

......---\
Mi 1ra. ||---------|----------|----------|----------|---------|-- Cuerda mas fina (Primera)
Si 2da. ||---------|----------|----------|----------|---------|--
Sol 3ra.||---------|----------|----------|----------|---------|--
Re 4ta. ||---------|----------|----------|----------|---------|--
La 5ta. ||---------|----------|----------|----------|---------|--
Mi 6ta. ||--------@|----------|----------|----------|---------|-- Cuerda mas gruesa (Sexta)
......___/1 Traste . 2 Traste . 3 Traste . 4 Traste . 5 Traste

MASTIL DE LA GUITARRA

Nota: @ es onde se debe poner el dedo. No en el medio, ni arriba de la barra de metal, si no


justo al lado.

-----------------------------------------------------------------
Lo primero que tienes que aprender para saber tocar tablaturas de guitarra o bajo, es que las
tablaturas son como si fueran partituras que estan hechas para la guitarra, aunque no con toda
la información que te daria una partitura, como por ejemplo los tiempos en que tienes que
tocar cada nota en el punteo de las canciones. Por lo cual tienes que haber escuchado antes
las canciones de la cuales quieres tocar usando las tablaturas. La tablatura esta compuesta de
seis líneas horizontales que representan las seis cuerdas de la guitarra, la línea de arriba
es la primera cuerda y la ultima línea es la sexta cuerda de la guitarra.

e------------------------------primera cuerda
B------------------------------segunda cuerda
G------------------------------tercera cuerda
D------------------------------cuarta cuerda
A------------------------------quinta cuerda
E------------------------------sexta cuerda

Dentro de esta líneas van a estar representados unos números que representan el traste que
debes de pulsar en el mastil de la guitarra.

Como ejemplo esta tablatura:

e----1-------------------------
B------------------------------
G-------3----------------------
D----------5-------------------
A------------------------------
E------------------------------

Esto quiere decir que debes comenzar el punteo de guitarra pisando la cuerda primera(e) en el
traste 1, después sigue la cuerda tercera(G) en el traste 3, después sigue la cuerda cuarta(D)
en el traste 5; es facil, solo tienes que seguir los números y ya esta hecho el punteo. Hasta
aqui facil.

NOTA: Un 0 en la tablatura indica que hay que tocar la cuerda al aire (sin pulsarla)

Cuando encuentres en las tablaturas unos números encima de otros (acordes), los tienes que
tocar al mismo tiempo y cada uno en su traste. Se trataria de un acorde y se definiria como:
dos o más notas sonando al mismo tiempo.

Ejemplo de acorde:

e--2---------------------------primera cuerda
B--3---------------------------segunda cuerda
G----4-------------------------tercera cuerda
D------------------------------cuarta cuerda
A------------------------------quinta cuerda
E------------------------------sexta cuerda

Aqui hay dos notas una encima de otra, sin dejar un espacio. Esto lo tienes que tocar al mismo
tiempo, o sea la primera cuerda de la guitarra pisada en el traste 2 y la segunda cuerda
pisada en el traste 3, presionas las dos cuerdas juntas en el traste que te indica y las tocas
al mismo tiempo y de ahí pasa a la otra nota que es la tercera cuerda en el traste 4.

Acordes de guitarra

Dom = cm
e----3--------------------------primera cuerda
B----4--------------------------segunda cuerda
G----5--------------------------tercera cuerda
D----5--------------------------cuarta cuerda
A----3--------------------------quinta cuerda
E-------------------------------sexta cuerda

Esto es un acorde. Arriba va el nombre del acorde y abajo como se ponen los dedos según los
números, es facil y con la practica podrás dominarlos.

Acordes basicos para guitarra puestos en tablatura:

E5 F5 F#5 G5 G#5A5 A#5 B5 C5 C#5D5 D#5

|----------------------------------------------------------------------|
|--------------------------------------------------------------3-------|
|------9--------10--------------------2---3---4---5---6---7----2---8---|
|-2----9---3----10---4---5---6---7----2---3---4---5---6---7-ó--0---8---|
|-2-or-7---3-ó---8---4---5---6---7-ó--0---1---2---3---4---5--------6---|
|-0--------1---------2---3---4---5-------------------------------------|

Acordes menores de guitarra

Em Fm Gm Am Bm Cm Dm

|-0---1---3---0---2---3---1-|
|-0---1---3---1---3---4---3-|
|-0---1---3---2---4---5---2-|
|-2---3---0---2---4---5---0-|
|-2---3-------0-------------|
|-0---1---------------------|

Definicion del tabulado para guitarra

Los siguientes simbolos son los mas frecuentes en las ttablaturas para guitarra, en algunos
puede que estos no signifiquen lo mismo, de todas maneras es muy usual que, en estos casos, la
persona que lo ha hecho explique lo que realmente quieren significar.

Se ponen en inglés, porque asi es como mayormente se conocen.

) = Bend torcer, girar

/ = Slide deslizarse

~~ = Vibrato vibrar

h = Hammer on golpear encendido

p = Pull off arrastrar apagado

PM = Palm mute

x\x = Pick scrape (rasgar con la pua)

NH = Armonico natural (Natural armonic)

+ = Tremelo Pick

) = Unison Bend
| = Ghost Bend (Bend fantasma)

|\ = Ghost Bend and release (Bend fantasma y soltar)

* = Retroalimentacion descontrolada (Uncontrolled feedback)

BEND:

Se toca la primera nota y luego se estira la cuerda con el dedo que presiona el mástil hasta
alcanzar un sonido de un medio tono, un tono completo o segun se indique.

E-|------------------|
B-|----5)------------|
G-|------------------|
D-|------------------|
A-|------------------|
E-|------------------|

HARMONICO NATURAL:

Se toca la cuerda ligeramente sin llegar a presionar con la mano que toca el mástil en el
traste que se indique y despues es tocada la nota.

HARMONICO ARTIFICIAL (PINCH):

Despues de que la nota es tocada normalmente, se toca ligeramente con la punta de el dedo de
la mano que hace el pick , sin llegar a apagar el sonido de la nota (una octava más arriba de
la nota tocada originalmente) para producir el sonido de un harmónico. (pinch) A.H.
E-|----9-------------|
B-|------------------|
G-|------------------|
D-|------------------|
A-|------------------|
E-|------------------|

PALM MUTE:

La nota es ligeramente apagada con el filo de la mano que hace el pick mientras esta esta
tocando las notas.
E-|------------------|
B-|------------------|
G-|------------------|
D-|------------------|
A-|------------------|
E-|--0--0--0--0------|

SLIDE:

Se toca la nota primera nota y se corre el dedo hasta un trasto más arriba o más abajo segun
sea el caso.La segunda nota no es tocada con la mano que hace el pick.
E-|------------------|
B-|----5/8-----------|
G-|------------------|
D-|------------------|
A-|------------------|
E-|------------------|
SLIDE PICK:

Es lo mismo que el slide solo que la segunda nota si es tocada.


E-|------------------|
B-|----5/8-----------|
G-|------------------|
D-|------------------|
A-|------------------|
E-|------------------|

SLIDE LARGO:

Se hace el pick durante el slide hasta alcanzar la nota deseada.


E-|------------------|
B-|----/5------------|
G-|------------------|
D-|------------------|
A-|------------------|
E-|------------------|

SLIDE OFF:

Es el slide largo solo que hacia abajo.


E-|------------------|
B-|----5/----\5------|
G-|------------------|
D-|------------------|
A-|------------------|
E-|------------------|

PICK SLIDE:

Con el filo de el pick (pua) se presiona sobre los trastos y se hace el slide.
E-|------------------|
B-|----x\------------|
G-|------------------|
D-|------------------|
A-|------------------|
E-|------------------|

HAMMER-ON:

Se toca la primera nota y la segunda se hace sonar por medio de un tap (presionar el trasto de
la guitarra y lograr un sonido sin necesidad de hacer un punteo) la segunda nota.

E-|------------------|
B-|----5h7-----------|
G-|------------------|
D-|------------------|
A-|------------------|
E-|------------------|
PULL-OFF:

Se colocan los dos dedos en las notas que se van a tocar, se toca la primera nota y se deja de
presionar esta para dejar sonar la nota de más abajo. La segunda nota no es tocada con la mano
que hace el pick (punteo).
E-|------------------|
B-|----7p5-----------|
G-|------------------|
D-|------------------|
A-|------------------|
E-|------------------|

TREMOLO PICKING:

La nota es tocada con la mano que hace el pick hacia arriba y hacia abajo lo más rápido que
sea posible.
E-|------------------|
B-|----5-------------|
G-|----/-------------|
D-|----/-------------|
A-|----/-------------|
E-|------------------|

VIBRATO:

Se toca la nota y se hace vibrar con el vibrato o palanca de la guitarra, o bien haciendo un
bend lo más rápido posible hacia arriba y hacia abajo.
E-|------------------|
B-|----5~------------|
G-|------------------|
D-|------------------|
A-|------------------|
E-|------------------|

Esto no es un curso, simplemente es lo mas basico para aprender a leer tabs de guitarra.
Recomiendo a los que empiezan a tocar la guitarra, que antes de intentar tocar las canciones
de sus grupos preferidos, que lo mejor es aprender y practicar con acordes varios dias o
semanas, hasta coger cierta soltura en los dedos de las manos. Con la practica os resultara
mas facil.

Descarga el tono de "guardian de mi corazon" a tu movil/celular Transcriptor:


M3M3_21
Origen:
El Salvador/santa tecla
Edad: 27
Contactarlo

Letras de
Canciones

Acordes para Guitarra | Videos Musicales

Que te parecio? Calificalo con estrellas!!


Currently 6.64/10

0
Rating: 6.6/10 (127 votos)
Intro:

e--14-14-14-14-12---------------12-12h14---14-14-14-14-12-------------
B-----------------15-14------15---------------------------15-14-------
G-----------------------14--------------------------------------14----
D---------------------------------------------------------------------
A---------------------------------------------------------------------
E---------------------------------------------------------------------

e---------------------------------------------------------------------
B---------------------------------------------------------------------
G-12-14-14/16---14h16-14---11-11h12---14-14h16---12-12h14-12-11-------
D---------------------------------------------------------------14-12-
A---------------------------------------------------------------------
E---------------------------------------------------------------------

1º Estrofa:
e-----------------------------------------------------------
B-----------------------------------------------------------
G-----------------------------------------------------------
D----------------------------11-11h12-14-11-11h12-----------
A-----------------------------------------------------------
E-----------------------------------------------------------
Como un día sin el sol

e-----------------------------------------------------------
B-----------------------------------------------------------
G-----------------------------------------------------------
D---------------------------------16-16-16-16-14-11-11h12---
A-----------------------------------------------------------
E-----------------------------------------------------------
como una noche sin estrellas

e-----------------------------------------------------------
B-----------------------------------------------------------
G-----------------------------------------------------------
D-------------------------11-11h12-14-11-11h12--------------
A-----------------------------------------------------------
E-----------------------------------------------------------
así es una ilusión

e-----------------------------------------------------------
B-----------------------------------------------------------
G-----------------------------------------------------------
D----------------------------16-16-16-16-14-11-11h12--------
A-----------------------------------------------------------
E-----------------------------------------------------------
que no puedes tenerla

Se despierta el furor guardado en mi corazón


pero nadie me oye, el silencio triunfó

A(para la otra guitarra)


e---------------------------0-------------------------------
B-------------------------2---------------------------------
G-----------------------2-----------------------------------
D---------------------2--------12-12h11-11-11-----14-12-----
A-------------------0---------------------------------------
E-----------------------------------------------------------
otra vez me mudó

e-----------------------------------------------------------
B-----------------------------------------------------------
G-----------------------------------------------------------
D-------------------------------11-11h12-14-11-11h12--------
A-----------------------------------------------------------
E-----------------------------------------------------------
Quiero curar mis heridas

e-----------------------------------------------------------
B-----------------------------------------------------------
G-----------------------------------------------------------
D-------------------------16-16-16-16-14-11-11h12-----------
A-----------------------------------------------------------
E-----------------------------------------------------------
pero no por encima

e-----------------------------------------------------------
B-----------------------------------------------------------
G-----------------------------------------------------------
D-------------------------------11-11h12-14-11-11h12--------
A-----------------------------------------------------------
E-----------------------------------------------------------
quiero quemar el veneno

e-----------------------------------------------------------
B-----------------------------------------------------------
G-----------------------------------------------------------
D-------------------------16-16-16-16-14-11-11h12-----------
A-----------------------------------------------------------
E-----------------------------------------------------------
para tener la verdad.

e-----------------------------------------------------------
B-----------------------------------------------------------
G-----------------------------------------------------------
D------------------14-14-12-11------------16-16-14-12-------
A-----------------------------------------------------------
E-----------------------------------------------------------
Así quiero sanar del cuchillo profundo sacando los

e-----------------------------------------------------------
B-----------------------------------------------------------
G-----------14-12-12-------------12-12-11-11----------------
D--------------------------------------------------16-14-14-
A-----------------------------------------------------------
E-----------------------------------------------------------
gusanos que me comen el alma que me hacen llorar.

Coro:

Guardián de la Puerta de Amor

e-----------------------------------------------------------
B-----------------------------------------------------------
G-----------------------------------------------------------
D-------------------------------------13-14-16--------------
A-----------------------------------------------------------
E-----------------------------------------------------------
déjame entrar, necesito tu calor,

quiero acariciar mi estrella otra vez.


Guardián de la Puerta de Valor,
e-----------------------------------------------------------
B-----------------------------------------------------------
G-----------------------------------------------------------
D---------------------------------------13-14-16------------
A-----------------------------------------------------------
E-----------------------------------------------------------
dejame entrar, para decirle a Dios,

que ya no aguanto más, lo que es la realidad.


Por favor Guardián, Guardián de mi corazón,
de mi corazón.

e--14-14-14-14-12---------------12-12h14---14-14-14-14-12-------------
B-----------------15-14------15---------------------------15-14-------
G-----------------------14--------------------------------------14----
D---------------------------------------------------------------------
A---------------------------------------------------------------------
E---------------------------------------------------------------------
de mi corazón

2º Estrofa

e---------------------------------12-12--------------14-14-12---------
B---------------------------------------15-14-----------------15------
G-12-14-14/16---------------------------------------------------------
D---------------------------------------------------------------------
A---------------------------------------------------------------------
E---------------------------------------------------------------------
Necesito tu Amor, necesito tu calor

e---------------------17-17-15-15-----------15-15-14-14----12-12------
B----------------------------------------------------------------15-14
G---------------------------------------------------------------------
D---------------------------------------------------------------------
A---------------------------------------------------------------------
E---------------------------------------------------------------------
necesito mi estrella, Guardián de la Puerta dejadme entrar.

Guardián de la Puerta de Valor,

e----------------------------------------------------------------
B--------------------------------------12-12-12-12---------------
G--------------------------------------------------14-11-11h12---
D----------------------------------------------------------------
A----------------------------------------------------------------
E----------------------------------------------------------------
dejame entrar, para decirle a Dios,

e----------------------------------------------------------------
B----------------------------------------------------------------
G-------------------14h16-14------14-16--------------------------
D---------------------------------------16-16-14-14-14-11-12h11--
A----------------------------------------------------------------
E----------------------------------------------------------------
que ya no aguanto más, lo que es la realidad

Por favor Guardián, Guardián de mi corazón,


de mi corazón.

e--14-14-14-14-12---------------12-12h14-------------------------
B-----------------15-14------15----------------------------------
G-----------------------14---------------------------------------
D----------------------------------------------------------------
A----------------------------------------------------------------
E----------------------------------------------------------------
De mi corazon

e--14-14-14-14-12---------------12-12h14-------------------------
B-----------------15-14------15----------------------------------
G-----------------------14---------------------------------------
D----------------------------------------------------------------
A----------------------------------------------------------------
E----------------------------------------------------------------
sharararara

e--14-14-14-14-12------------------------------------------------
B-----------------15-14------------14-15-17-15-14----------------
G------------------------14-----------------------14-14----14h16-
D-------------------------------------------------------16-------
A----------------------------------------------------------------
E----------------------------------------------------------------
Sharararara

Transcriptor:

Arennithaw
Origen:
Chile/santiago
Edad: 18
Contactarlo

Descarga el tono de "Un angel llora" a tu movil/celular

Letras de
Canciones
Acordes para Guitarra | Videos Musicales

Que te parecio? Calificalo con estrellas!!


Currently 7.35/10

0
Rating: 7.4/10 (268 votos)

. . . . . . . . .

. .
Em Am
Las flores ya no llegan, el poema se acabo
D G B7
lo que un dia fue amor, en amargura se volvio.
Em Am
Ella quiere regresar el tiempo que paso,
B Bsus4 B
para poder revivir los placeres del ayer

=CORO=
Em Am D G C
Ya no puede ver las cosas igual, porque en el mar
Bsus4 B Em Am D
de olvido todo ya quedo, ya el oceano a perdido su
G C[add9]
color azul,
G D
las estrellas miran, la luna la abraza, y un angel
Em D C Cm
llora.
Em Am
Pasaron ya los años, ya el se olvido
D G B
de el amor que prometio cuando la conocio.
Em Am
Entra a la habitacion, y en la cama el la vio
B Bsus4 B
toca su cuerpo frio, la tristeza la mato.
[ aqui entra esto ,
Em Am , D , G, C, Cm ]
Em Am
Las flores ya llegaron, el poema empezo
D G B
sobre una tumba fria el llora su dolor
Em Am
El solo quiere regresar el tiempo que paso
B Bsus4 B
para poder perderse asi en la hermosura de su voz

[ aqui sube A Fam ]

Transcriptor:

wilypoo
Origen:
Bolivia/Cochabamba
Edad: 20
Contactarlo

Descarga el tono de "COMPLICADO" a tu movil/celular

Letras de
Canciones

Acordes para Guitarra | Videos Musicales

Que te parecio? Calificalo con estrellas!!


Currently 3.90/10
0
Rating: 3.9/10 (48 votos)

. . . .
Am F C E
Am F C E

Am F
Puedo decidir si quiero estar
C
sentada en medio de la obscuridad
F
Puedo decidir si quiero morir
C E
pensando en lo que fuera de mi

Am F
Aunque la ansiedad rasgue de mi
C E
la buena intención que quiero hacer
Am F
Podría sobrevivir a cualquier error
C E
pero no lastimar ningún corazón

Coro:
Am F C E
Veo superficie de lo hondo del mar
Am F C E
Luchando para salir y poder respirar
Am F C E
Me ahogan la duda de poder continuar
Am F C E
Prefiero hundirme si no voy a ganar
Am
y esta complicado

Am F
Hablo con la amargura de mi corazón
C E
mi alma esta hastiada de vivir,
Am F
Tus manos me formaron y me hicieron
C E
y ahora te has olvidado de Mi
Am F
Que tengo yo que hacer para revivir
C E
la esperanza que un día yo sentí
Am F
Si has cambiado en hacerme feliz
C E
te ruego por la compasión que hay en ti

Coro:
Am F C E
Veo superficie de lo hondo del mar
Am F C E
Luchando para salir y poder respirar
Am F C E
Me ahogan la duda de poder continuar
Am F C E
Prefiero hundirme si no voy a ganar
Am
y esta complicado

NiÑaChAY
(william luna)

tema q va para toa la gente sayista p xD y romanticona ps :D


by trankilito_666@hot...
INTRO

Sim (2 rasgeos)

eI-------------------------------I
BI-------------------------------I
GI-------------------------------I
DI------------2------------------I
AI----2/4--5---------------------I
EI--2----------------------------I

MIm ( 2 rasgeos )

eI-------------------------------I
BI-------------------------------I
GI-------------------------------I
DI---5-4-------------------------I
AI-------5-4---------------------I
EI-----------5-3-----------------I
Bm - Em - Bm - Em

eI-------------------------------I
BI-------------------------------I
GI-------------------------------I
DI-------------------------------I
AI---0h1--0---------2------------I
EI-----------2---5---------------I

Bmm Emm Am Dm Em-G- A - Bm-A

Bm Em
Ñinachay dijiste que me querias
A D
Ñinachay por que mentias
Bm Em
Ñinachay dijiste que volverias
A D
Ñinachay por que mentias

G F#
Si este amor era mi vida
G F#
Si tu amor me pertenecia
Bm Em
Ñinachay dejaste mi alma herida
A D
Ñinachay por tus mentiras

Bm Em
Ñinachay dijiste que volverias
A D
Ñinachay por que mentias

G F#
Si este amor era mi vida
G F#
Si tu amor me pertenecia

D F#m
Ñinachay tu sabes cuanto te quiero
G A
Ñinachay cuanto te amo
D F#m
Ñinachay tu sabes que soy tu dueño
G A
Ñinachay vuelve

Bm - Em - Am D-D4-A(golpe)

G F#
Si este amor era mi vida
G F#
Si tu amor me pertenecia
D F#m
Ñinachay tu sabes cuanto te quiero
G A
Ñinachay cuanto te amo
D F#m
Ñinachay tu sabes que soy tu dueño
G A
Ñinachay vuelve

Bm - Em - A - D-D4-A(golpe)(x2)

Bmm Emm Am Dm Em-G- A - Bm-A

D F#m
Ñinachay tu sabes cuanto te quiero
G A
Ñinachay cuanto te amo
D F#m
Ñinachay tu sabes que soy tu dueño
G A
Ñinachay vuelve(bis)

Bm - Em - A - D-D4-A(golpe)(x3)
Sim (2 rasgeos)

eI-------------------------------I
BI-------------------------------I
GI-------------------------------I
DI------------2------------------I
AI----2/4--5---------------------I
EI--2----------------------------I

MIm ( 2 rasgeos )
eI-------------------------------I
BI-------------------------------I
GI-------------------------------I
DI---5-4-------------------------I
AI-------5-4---------------------I
EI-----------5-3-----------------I

. . . . .
VIENES Y TE VAS

Intro:
Do Lam
1]-3/0------3/0------3/0---------------------------------
2]-------3--------3-------3-3-3---------0---0-0/1--1-1-1-
3]--------------------------------2---2---2--------------
4]-----2--------2-------------------2--------------------
5]-3--------3--------3----3-3-3---0----------------0-0-0-
6]-------------------------------------------------------
Do Lam
1]-3/0------3/0------3/0---------------------------------
2]-------3--------3-------3-3-3---------0---0-0/1--1-1-1-
3]--------------------------------2---2---2--------------
4]-----2--------2-------------------2--------------------
5]-3--------3--------3----3-3-3---0----------------0-0-0-
6]-------------------------------------------------------
Fa Mim
1]------------------------0---------
2]-------1-1--------1-1---0---------
3]-----2----------2-------0---2--0--
4]---3----------3---------2---------
5]-3----------3-----------2---2--2--
6]------------------------0---------
Fa Mim
1]------------------------0---------
2]-------1-1--------1-1---0---------
3]-----2----------2-------0---2--0--
4]---3----------3---------2---------
5]-3----------3-----------2---2--2--
6]------------------------0---------

Se repite el intro, pero hay una variacion en la 3ra estrofa:


Do Lam
1]-3/0------3/0------3/0---------------------------------
2]-------3--------3-------3-3-3---------0---0-0/1--1-1-1-
3]--------------------------------2---2---2--------------
4]-----2--------2-------------------2--------------------
5]-3--------3--------3----3-3-3---0----------------0-0-0-
6]-------------------------------------------------------
Do Lam
1]-3/0------3/0------3/0---------------------------------
2]-------3--------3-------3-3-3---------0---0-0/1--1-1-1-
3]--------------------------------2---2---2--------------
4]-----2--------2-------------------2--------------------
5]-3--------3--------3----3-3-3---0----------------0-0-0-
6]-------------------------------------------------------
Fa Mim
1]------------------------0--0-3-0----------------
2]-------1-1--------1-1---0--------3-0-0-------0--
3]-----2----------2-------0--------------2-0-2----
4]---3----------3---------2-----------------------
5]-3----------3-----------2-----------------------
6]------------------------0-----------------------
Fa Mim
1]------------------------0---------
2]-------1-1--------1-1---0---------
3]-----2----------2-------0---2--0--
4]---3----------3---------2---------
5]-3----------3-----------2---2--2--
6]------------------------0---------
Do Lam
Ay yo no quiero verme contigo
Do Lam
no sabes cuanto sufro cariño
Fa [Mim]-Sol
no se si soy feliz lejos de tiiiiii
Fa Sol
o soy feliz estando contigo
Do Lam
Un día me amas luego me olvidas
Do Lam
un día me amas luego te olvidas
Fa [Mim]-Sol
no se si soy feliz lejos de tiiiiii
Fa Sol
o soy feliz estando contigo
Fa Sol#
Vienes vienes y te vas
Fa Sol#
vienes vienes y te vas
Fa Sol#
vienes vienes y te vas
Fa Sol#
vienes vienes y te vas

Solo:
Do Lam
1]---0-0-0-0-3---------------------------------
2]-3-3-3-3-3-1-3/1-1-3-1-----------------------
3]-0-----------0-0-0-0-0--2-2-------2--2-2-2---
4]------------------------2-2-2---2----2-2-2---
5]------------------------------0--------------
6]---------------------------------------------
Do Lam
1]---0-0-0-0-3---------------------------------
2]-3-3-3-3-3-1-3/1-1-3-1-----------------------
3]-0-----------0-0-0-0-0--2-2-------2--2-2-2---
4]------------------------2-2-2---2----2-2-2---
5]------------------------------0--------------
6]---------------------------------------------
Fa Mim
1]------------------------0--0-3-0----------------
2]-------1-1--------1-1---0--------3-0-0-------0--
3]-----2----------2-------0--------------2-0-2----
4]---3----------3---------2-----------------------
5]-3----------3-----------2-----------------------
6]------------------------0-----------------------
Fa Mim
1]------------------------0---------
2]-------1-1--------1-1---0---------
3]-----2----------2-------0---2--0--
4]---3----------3---------2---------
5]-3----------3-----------2---2--2--
6]------------------------0---------
Do Lam
1]---0-0-0-0-3----------------------------------
2]-3-----------3/1-0-1-0------------------------
3]------------------------2-2-------2-2--2-2-2--
4]---2-2-2-2-2----------------2---2-------------
5]-3-----------3-3-3-3-3--0-0---0--------0-0-0--
6]----------------------------------------------
Do Lam
1]---0-0-0-0-3----------------------------------
2]-3-----------3/1-0-1-0------------------------
3]------------------------2-2-------2-2--2-2-2--
4]---2-2-2-2-2----------------2---2-------------
5]-3-----------3-3-3-3-3--0-0---0--------0-0-0--
6]----------------------------------------------
Fa Mim
1]------------------------0--0-3-0----------------
2]-------1-1--------1-1---0--------3-0-0-------0--
3]-----2----------2-------0--------------2-0-2----
4]---3----------3---------2-----------------------
5]-3----------3-----------2-----------------------
6]------------------------0-----------------------
Fa Mim
1]------------------------0---------
2]-------1-1--------1-1---0---------
3]-----2----------2-------0---2--0--
4]---3----------3---------2---------
5]-3----------3-----------2---2--2--
6]------------------------0---------