Sunteți pe pagina 1din 6

Ikaw At Ako - Moira and Jason (Arrangement by Jorell Prospero)

‘Hello, Love, Goodbye’ OST


Tuning: DADGBe (DROP D)
Capo: 2nd Fret
Please put credits if you will use this tab. Thank you.

Intro:

e--5-------5---------------5-3-2-------------------------------------------------------------------------
B--------3------3-------------------------3----------3---------2-3-0-------0-----------------0---------
G-----2------2-------2---------------------------0---------------------------0-----0-------0------------
D--0-------------------------------------------4------------0--------------------0--------0--------------
A------------------4------------------2------------------0------------------------------------------------
D---------------------------------------------------------------------------5------------5-----------------

e-----------------------------------------------------------------------------------------------------
B--3-------3----3--2-------------------------------------------------------------------------------
G--------2----2-------------------------------------------------------------------------------------
D-----2----------------------------------------------------------------------------------------------
A--0-------------------------------------------------------------------------------------------------
D-----------------------------------------------------------------------------------------------------

Verse:
e-----------0--2-------0-----0----------------------------------------------------------------------------
B--3----3-----------------3------3-2--3--3----2-3-0-----0---------0--2-3-0-3-2------ 2---2------
G-----2----------------------------------------------------- -0---------0-------------------- 2-----------
D--0-------------------------------------------------------------------------------------------x-----------
A------------------4----------2---------------0-------------------------------------------0-----------0--
D----------------------------------------------------------5-------5---5----------------------------------

e-------------------0--2-----5s7-5---2--2p0-2-0----------------------------------------------------------
B-2s3-- 3------3---------------------------------------3--2--3-0------ 0--------0--2-3-0-2----2---2---
G------------2-------------------------------------------------------------0--------0----------------2--------
D------- 0---------------------------------------------------------------------------------------------x-------
A--------------------------4------------2------------0--------------------------------------------0----------0
D-----------------------------------------------------------------------5-------5---5-------------------------

Ang pag-asang nahanap ko


Sayong mga mata..

e--------------------------------------0---2--3-2------0--0-------------------------------------------------
B--2s3-2-0------0--3-2-----2--3------3-----------------------3---2--3----------------------------------
G--------- 0----0-------------------------2-------------------------------------------------------------------
D-------------0------------------------------------------------------------------------------------------------
A---------------------------0------------------------4----------2---------------------------------------------
D----------5------------------------------0-------------------------------------------------------------------

e----------------------------------0----2---3--2-0-0----------------0---------------------------------------
B---0--------0--3-2-------2-3--------------------------------2---2-----------------------------------------
G---0-----0--------------------------------------------------2---2-------------------------------------------
D-------0--------------------------------------------------2---------------------------------------------------
A----------------------------------------0---------------0-----------------------------------------------------
D---5-------------------5--------------------------------------------------------------------------------------
Chorus:

e--2-3-3s5----------5-----------3-2-3-3s5--------------------3s5--3-2-----3-2-------------------------
B-------------------3------3-----------------------------3----3---------------------------3-------------------
G----------------2------2-----------------------------2----2---------------------------------0----0----------
D-------------0-------------------------------------4--------------------------------------------0-------------
A------------------------------4-----------------2-----------------0----------0-------------------------------
D----------------------------------------------------------------------------------------5----------------------

e--0h2-2-2-0----0--------------------------------------------------------------------------------------------
B----------------3--------------0-----------2------------------------------------------------------------------
G-----------------------------0------0------2------------------------------------------------------------------
D--------------------------0------0---------2------------------------------------------------------------------
A--------------------------------------------0------------------------------------------------------------------
D--4-------------------2---------------------------------------------------------------------------------------

e--2-3-3s5----------5-----------3-2-3-3s5--------------------3s5--3-2-----3-2-------------------------
B-------------------3------3-----------------------------3----3---------------------------3-------------------
G----------------2------2-----------------------------2----2---------------------------------0----0----------
D-------------0-------------------------------------4--------------------------------------------0-------------
A------------------------------4-----------------2-----------------0----------0-------------------------------
D----------------------------------------------------------------------------------------5----------------------

e--0h2-2-2-0----0--------------------------------------------------------------------------------------------
B----------------3--------------0-----------2------------------------------------------------------------------
G-----------------------------0------0------2------------------------------------------------------------------
D--------------------------0------0---------2------------------------------------------------------------------
A--------------------------------------------0------------------------------------------------------------------
D--4-------------------2---------------------------------------------------------------------------------------

e-----------2--0-------------------------------2-3--2---0----------2s3-2-2-2-----------------------------
B-----------------3--0------0----------------------------------2----------------------------------------------
G----------------------------0-----0-------------------------- 2-----------------------------------------------
D---2s4------------------------0---------0-------------------x-----------------------------------------------
A----------------------------------------------------------0----------------------------------------------------
D-------------------------5------------5-----------------------------------------------------------------------

Back to intro..

e--5-------5---------------5-3-2--------------------------------------------------------------------------
B--------3------3-------------------------3----------3---------2-3-0-------0-----------------0---------
G-----2------2-------2---------------------------0---------------------------0-----0-------0------------
D----------------------------------------------4------------0--------------------0--------0---------------
A------------------4------------------2------------------0-------------------------------------------------
D--0-------------------------------------------------------------------------5------------5----------------

e-----------------------------------------------------------------------------------------------------
B--3-------3----3--2-------------------------------------------------------------------------------
G--------2----2-------------------------------------------------------------------------------------
D-----2----------------------------------------------------------------------------------------------
A--0----------------0--------------------------------------------------------------------------------
D-----------------------------------------------------------------------------------------------------
Verse 2:

e--------------------------------------------------------------------------------------------------------
B--------------------------------------------------------------------------------------------------------
G-------------------------------------------------------------x------------------------x----------------
D---0----0---2-4----2-0---2-0-----0--0-------0---------0---------0-0----0-----0----------------
A------0-----------4-------- 2----2---------2s4----2------2-----2-------2-----4--4-----4---------
D---0-----------------------------------------------------5--5--5--5-------------7--7---------7-----

e----------------------------------------------------------------------------------------------------------------
B------------------------------------------------------------------------------------------------x---------------
G--------------------------2s4-------------------------------------x-------------------------- 0---------------
D--0--0----0-2--4--------------4--2-4-2----0------0----------0-------0------0----0-----0---------------
A---------0-----------4----------2----------0-----4-----2--------2------2---4-----2-----4-------4---------
D------0------------------------------------------------------5----5---5--5----------------7----------7------

e-----------------------------------------------------------------------------------------------------
B-----------------------------------------------------------------------------------------------------
G-----------------------------------------------0----------------------------------------------------
D----0------------------0-------------0----4----4------2--2-----0---------0---------------------
A-------4-----2----2------4------4----------------4----------2------2s4-------------------------
D------------- 5---------------7------------0--------------------------------------------------------

e-------------------------------------0---0---0--0---------------------------------------------------
B-------------------------------------2---2---2--2---------------------------------------------------
G-------------------------------------2-- 2---2--2---------------------------------------------------
D---------0--------3s4---4----2---2---2---2--2---------------------------------------------------
A---2-4----4------0--------0------0---0---0---0---------------------------------------------------
D---5--------------------------------x---x----x--x---------------------------------------------------

Then repeat chorus..


Ang naiba lang yung part na ‘to:
3:03-3:04

e----------------5------------------3--2--------0-------------------0h2-2-2--0-----0---------------0-----
B----------------5-----8--7-------------------------3------------3-----------------3-------------0----------
G--------------- 5----------------------------------------------0---------------------------------0-----------
D---7----6----------------------------------------------------------------------------------------------------
A---7----6-------------------5--------------------------x--------------------x-----------------------x------
D---9----8-----7---------------------------5---------------5-------4-----------4--------2-----------------

e--0---------------------------------------------------------------------------------------------------
B--2---------------------------------------------------------------------------------------------------
G--2---------------------------------------------------------------------------------------------------
D--2---------------------------------------------------------------------------------------------------
A--0---------------------------------------------------------------------------------------------------
D------------------------------------------------------------------------------------------------------
Mula noon..(harmonics part) “Malanding part” Haha! Press “Like” naman sa cover ko oh!

3:12-3:13
e--------------12+----------------------------------------------------------------------------------
B--------7+---------------7+-----------------------------------------------------------------------
G---7+-------------7+------------------------------------------------------------------------------
D-----------------------------------------------------------------------------------------------------
A-----------------------------------------------------------------------------------------------------
D-----------------------------------------------------------------------------------------------------

e------------------------2-2-2-3-2-0---------x----2s3-2-2-2------------------------------------
B---------0-------------------------------------2-----------------------------------------------------
G-------- 0----0-------------------------------2-----------------------------------------------------
D---------x-------------------------------------2-----------------------------------------------------
A------------------------------------------0-----------------------------------------------------------
D---5-------------5-----------------------------------------------------------------------------------

Adlib:

e---3----------0-----------5--5s7---5----3-2--------2-----------2---3-2--0----------------------
B----------3---3-----3---------------x-----------------3------3-----------0-----3-------------------
G-------2-----2--2-------------------------------------0--0---------------x--------------------------
D--------------x-----------------------------------------x----------------------------------------------
A---------------------------4----------------------2-----------------0---------------------------------
D--0----------------------------------------------------------------------------------------------------

e--------------------------------------------------------------------------------0-----------------------
B----------3--------------------------------3----------------------------0-------------0---------------
G---------------------------0-----------0---------------0-----------0--------------0-------------------
D------0-----------------0----------0----------------0-----------0-------------------------------------
A---------------x------------------------------x----------------------------x----------------------------
D--5---------------5------------4-----------------4----------2-----------------------------------------

e-----------------------------------------------------------------------------------------------------
B--2-----------3---5--------------------------------------------------------------------------------
G--2------2------------------------------------------------------------------------------------------
D------0----------------------------------------------------------------------------------------------
A--0----------2----4---------------------------------------------------------------------------------
D-----------------------------------------------------------------------------------------------------

Repeat adlib then…

e-----------------------------------------------------------------------------------------------------
B----------3--------------------------------3--------------------------------------------------------
G---------------------------0-----------0---------------0-------------------------------------------
D------0-----------------0----------0----------------0----------------------------------------------
A---------------x------------------------------x------------------------------------------------------
D--5---------------5------------4-----------------4-------------------------------------------------
e------------------0----0-2-3--0---2--3--5---------------------------------------------------------
B---2--0-2--3------3---------------------------------------------------------------------------------
G-------------------------------------------------------------------------------------------------------
D-------------------------------------------------------------------------------------------------------
A---0---------------------------------------------------------------------------------------------------
D--------------------------------------------------------------------------------------------------------

Last chorus:

e--2-2-3--3s5--3--2--3--3s5---3s5--3--2--3-2------0h2-----2-2--0------0---------------
B--------------------------------------------------------3-----------------------3-------------------
G-----------------------------------------------------------------------------------------------------
D-----------------------------------------------------------------------------------------------------
A-----------------------------------------------------------------------------------------------------
D-----------------------------------------------------------------------------------------------------

e-----------------------------------------------------------------------------------------------------
B-----------------------------------------------------------------------------------------------------
G-------------0--2--0------2s4-2--0------0-------------------------------------------------------
D---2s4--4------------4----------------4-----4--2-0--2s4-4-4-2--0--2------------------------
A-----------------------------------------------------------------------------------------------------
D-----------------------------------------------------------------------------------------------------

e--------------------------------------------2--0---------2-2-2-3-2-0--2s3-2-2-2---------------
B---------------------------------------------------3--0----------------------------------------------
G--------------------------------------2s4------------------------------------------------------------
D---2s4-2-0------2s4--4--5--2--------------------------------------------------------------------
A---------------2--------------------------------------------------------------------------------------
D-------------------------------------------------------------------------------------------0----------

If you have any questions, please send me a message!


Don’t forget to like and subscribe.

-Jorell Prospero