Sunteți pe pagina 1din 2

Mana dreapta, exemple de batai si ciupituri

Exemple de batai pe chitara

Literele „j” sau „s” indica bataie în jos sau sus, respectiv. La început nu va vor iesi
perfect, conditia este sa exersati cât mai mult si sa pastrati ritmul. Pentru simplitate,
toate bataile sunt pe acordul Am

4/4 (I) :

j j s s j s
E||--0----0--0----0--0--0--|--0----0--0----0--0--0--||
B||--1----1--1----1--1--1--|--1----1--1----1--1--1--||
G||--2----2--2----2--2--2--|--2----2--2----2--2--2--||
D||--2----2--2----2--2--2--|--2----2--2----2--2--2--||
A||--0----0--0----0--0--0--|--0----0--0----0--0--0--||
E||------------------------|------------------------||

3/4 :

j j s j s j j s j s j
E||------------0----|--0--0--0--0--0----|--0--0--0--0--0----|
B||------------1----|--1--1--1--1--1----|--1--1--1--1--1----|
G||------------2----|--2--2--2--2--2----|--2--2--2--2--2----|
D||------------2----|--2--2--2--2--2----|--2--2--2--2--2----|
A||------------0----|--0--0--0--0--0----|--0--0--0--0--0----|
E||-----------------|-------------------|-------------------|

Ritm de waltz (3/4) :

E||-------0----0----|------0----0----|------0----0----|-------0----0-|
B||-------1----1----|------1----1----|------1----1----|-------1----1-|
G||-------2----2----|------2----2----|------2----2----|-------2----2-|
D||-----------------|----------------|----------------|--------------|
A||--0--------------|----------------|--0-------------|--------------|
E||-----------------|--0-------------|----------------|--0-----------|

Ritm de polka (2/4) :

Util pentru majoritatea melodiilor populare, dar nu numai. E indicat sa opriti corzile cu
podul mâinii pentru mai mult efect.

E||-------0----|-------0----|-------0----|-------0----||
B||-------1----|-------1----|-------1----|-------1----||
G||-------2----|-------2----|-------2----|-------2----||
D||------------|------------|------------|------------||
A||--0---------|------------|--0---------|------------||
E||------------|--0---------|------------|--0---------||

Ritm de tango (4/4) :

E||-------0----|-----0--0-----0-----0----|-----0--0-----0-----0----||
B||-------1----|-----1--1-----1-----1----|-----1--1-----1-----1----||
G||-------2----|-----2--2-----2-----2----|-----2--2-----2-----2----||
D||-------2----|-----2--2-----2-----2----|-----2--2-----2-----2----||
A||-------0----|-----0--0-----0-----0----|-----0--0-----0-----0----||
E||------------|-------------------------|-------------------------||

Ciupituri

Ciupitura 4/4 :

Em
E||--------------0-----------|--------------0-----------||
B||--------0-----------0-----|--------0-----------0-----||
G||-----0-----0-----0-----0--|-----0-----0-----0-----0--||
D||--------------------------|--------------------------||
A||--------------------------|--2-----------------------||
E||--0-----------------------|--------------------------||

Ciupitura 4/4 (II) :

E||--0--------0--------0-----|--0--------0--------0-----|
B||-----1--------1--------1--|-----1--------1--------1--|
G||--------2--------2--------|--------2--------2--------|
D||--------------------------|--------------------------|
A||--0-----------------0-----|--0-----------------0-----|
E||--------------------------|--------------------------|

E E E E E E E E
--0--------0--------0-----||
-----1--------1--------1--||
--------2--------2--------||
--------------------------||
--0-----------------0-----||
--------------------------||

Ciupitura 3/4 :

E||-----------0--------|-----------0--------||
B||--------0-----0-----|--------0-----0-----||
G||-----0-----------0--|-----0-----------0--||
D||--------------------|--------------------||
A||--------------------|--2-----------------||
E||--0-----------------|--------------------||

http://www.looknohands.com/chordhouse/piano/