Sunteți pe pagina 1din 2

MINISTERUL AGRICULRURII I INDUSTRIEI ALIMENTARE

AL REPUBLICII MOLDOVA
COLEGIUL AGROINDUSTRIAL DIN RCANI
Examinat
Catedra de discipline tehnice Aprob:
i tehnologice Director adjunct
Proces verbal nr.3 al seciei de nvmnt
din 14 martie 2016 Inga Gherasim______________
ef A. 2016
Romanciuc

Elevul grupei TP-21-

Varianta .4

1. Rolul intuiiei nchipuirii i fanteziei n cmpul cognetiv de


activitate creatoare.-------------------------------------------------------------
----------------------------------------------------------------------------------------
----------------------------------------------------------------------------------------
-------------------------------------------4p

2.Lucrul cu fiierele bibliografice ,clasificarea lor i alctuirea unui


program de propagare a tehnologiei avansate-reclam , conferine,
expoziii, concursuri.--------------------------------------------------------------------
-----------------------------------------------------------------------------------------------
-----------------------------------------------------------------------------------------------
-----------------------------------------------------------------------------------------------
--------------------4p

3.Folosirea emblemelor de firm cheiei de de


scifrare comercial, a denumirilor controlate dup provenen.-----------
-----------------------------------------------------------------------------------------------
-----------------------------------------------------------------------------------------------
-------------------------------------------------8p

4.Transmiterea dreptului de autor terilor.---------------------------------------


-----------------------------------------------------------------------------------------------
-----------------------------------------------------------------------------------------------
----------------------------------------------12p

Punctaj 28-27 26-25 24-22 21-19 18-14 13-8 7-5


Nota 10 9 8 7 6 5 4