Sunteți pe pagina 1din 15

CANTECE PENTRU

♪♫ CHITARA ♪♫

2008-

❄ ❄ ❄

❄ ❄ ❄

Dm C F
1. Limbile
Limbile sa salte cu cantari
cantari inalte
inalte
C F C Dm
Sa strige-n tarie glas de bucurie

2. Laudand pe Domnul sa strige tot omul


Ca domnul e mare si imparat tare

3. Pe varfuri de munte s-aud glasuri multe


Cantati pe-mparatul ca nu-i ca el altul

4. Dati rugi ne-ncetate mila sa-si arate


Spre noi ticalosii si mult pacatosii

5. Cantati sa-nteleaga peste lumea larga


Ca Dumnezeu poate a-mparati toate

6. El firea coboara suie si coboara


Pe varfuri de munte s-aud glasuri multe

7. Cine se inalta cu firea semeata


Va vedea tot omul cum il cearta domnul- bis

Am Dm Am
I. Colindam colindatori
Am Dm Am
Noaptea pe la cantatori
Am Dm E Am
Noaptea pe la cantatori
E Am
Colindam

II. Prin toiene greu razbim


La colida noi pornim
La colinda noi pornim
Colindam

III. Colinda Craciunului


Pe ulita satului
Pe uliita satului
Colindam

IV. In noaptea Ajunului


La nasterea Domnului
La nasterea Domnului
Colinadam

V. Cand in ceruri se canta


Pruncul cest ca se nastea
Pruncul cest ca se nastea
Colindam

VI. Ingerii il preamareau


Pastorii se inchinau
Pastorii se inchinau
Colindam

VII. Marire lui Dumnezeu


Marire fiului sau
Marire fiului sau
Colindam
VIII. Pe pamant pace sa fie
De acum pana-n vecie
De acum pana-n vecie
Colindam

RITM:jjsjsj
Am E
I. Larg deschideti poarta
E Am
Sufletelor toate
C Am
N-am venit sa cerem
E Am
Ci-am venit sa dam

Refren:
C G
Dalbe si iar dalbe
G Am
Flori adevarate
C G
Ca si vestea buna
F Am
Ce vom colinda.
Dalbe si iar dalbe
Flori adevarate
Dalbe si iar dalbe
E Am
Florile de mar.

II. Dincolo de muntii


Vietii si-ai himerii
Le-am cules azi-noapte
Florile de mar
Le-am cules din muntii
Unde vesnic merii
Roditori de aur
Cresc intr-adevar

III. Florile pe care,


Le-am cules azi-noapte,
Vor rodi in brazda,
Sufletelor toate.
Merele de aur,
Merele visate,
De colindatorii,
Veacurilor toate.

RITM:
vers:jj
ref: jjsjsj

♪♫DIVERSE♭♮
NINSOAREA DE ADIO

Em
Aseară cînd ne despărţeam, aseară,
B7 Am Em
Tot mai era un pic de primăvară,
Şi-acum aruncă ochii pe fereastră,
A viscolit pe despărţirea noastră.

Distanţa s-a-nmulţit cu alb de moarte


Departe s-a făcut foarte departe,
Şi ninge între noi ninsoare mare
Ninsoare de sfîrşit de calendare.

R: Şi ochii nu mai au ce să mai vadă


Doar urme de jivine prin zăpadă,
De ocnă-i viscolul ce-mi arde rana
Şi-ascult de sub zăpezi Siciliana.

Şi vor veni dezastre de tot felul


Precum anunţă trist violoncelul,
Şi harpa şi pianul mă omoară,
Reverberîndu-mi fulgii de afară.

Mai latră undeva de frig un cîine,


Dar tu ce faci în ziua fără mîine,
De fapt de ce te-ntreb cînd eu din mine
Mi-am interzis să ştiu de-i rău sau bine.

Şi a venit ninsoarea alb-albastru


Să parafeze totul cu dezastru,
Să iasă lupi, agenţii foamei sure,
Din fiecare pîlcuri de pădure.

Să vină, prin oraşe, mari dihănii


Şi caii aburind să tragă sănii,
Şi poşta în aceste vremuri stranii
Să-ntîrzie cu lunile şi anii.

Să vezi şi tu ce strigăt tragic este:


„Să nu-mi mai dai de tine nici o veste",
Deocamdată ninge praf de rază
Şi drumurile noastre se blochează.

Nici nu mai ştiu de-i noapte sau e ziuă,


E doar ninsoarea noastră de adio.
FATA BLONDA

Str : Em D G D am Em
Ref : G D Am Em

D Em D Em
In tara noptilor, te-am intalnit
G D Am Em
Ai stat o clipa`n loc , si mi-ai zambit
Mi-ai Spus sa nu te-ating , dar te-am atins
Plangand m-ai sarutat si-apoi te-ai stins

Ref:
Em G D
Hai spune-mi unde , ma vei astepta
Am Em
In ce tara de paradis
Fata Blonda, cum sa-ti regasesc
Chipul tau de vis
-----3--------3-----|-----0--------0-----|-----0--------0-----||
--------2--------2--|--------0--------0--|------- 2--------2--||
--0-----------------|-----------0--------|-----------1--------||
-----------0--------|--------------------|--2-----------------||
--------------------|--3-----------------|--------------------||

vers 2:

C
Si aud
E||--------------------|
B||-----1--------1-----|
G||--------0--------0--|
D||--------------------|
A||--3-----------------|
E||-----------3--------|

D G B7
O caruta cu cai
--------------------|--------------------|--------------------||
-----3--------3-----|-----0--------0-----|-----0--------0-----||
--------2--------2--|--------0--------0--|------- 2--------2--||
--0-----------------|-----------0--------|-----------1--------||
-----------0--------|--------------------|--2-----------------||
--------------------|--3-----------------|--------------------||

vers 3:

C G
Unu-i alb, altu-i negru
E||--------------------|--------------------|
B||-----1--------1-----|-----0--------0-----|
G||--------0--------0--|--------0--------0--|
D||--------------------|-----------0--------|
A||--3-----------------|--------------------|
E||-----------3--------|--3-----------------|

Am B7
si-mi pa re
|--------------------|--------------------||
|-----1--------1-----|-----0--------0-----||
|--------2--------2--|------- 2--------2--||
|-----------2--------|-----------1--------||
|--0-----------------|--2-----------------||
|--------------------|--------------------||

vers 4:

C B7
Ca ei sunt unul iad
E||--------------------|--------------------||
B||-----1--------1-----|-----0--------0-----||
G||--------0--------0--|------- 2--------2--||
D||--------------------|-----------1--------||
A||--3-----------------|--2-----------------||
E||-----------3--------|--------------------||

Em
Si-altil rai
E||-----0--------0-----|-----0--------0-----|
B||--------0--------0--|--------0--------0--|
G||--------------------|--------------------|
D||--2-----------------|--2-----------------|
A||-----------2--------|-----------2--------|
E||--------------------|--------------------|

Em C D G B7
Stau la geam în oraşul cel mare
C D G B7
Şi aud o căruţă cu cai
C G Am B
Unu-i alb, altu-i negru şi-mi pare
C B7 Em
Că ei sunt unui iad şi-altul rai

Dar ţăranul acela ce-i mână


Prin maşini descurcându-se greu
Dumnezeule, parcă e tata!
Căruţaşul e chiar tatăl meu
Refren:

Am D G Em Am
Tropa-trop prin oras Schioptatul galop un taran
E||-----0-----0-----2--|-----2-----3-----3--|-----0-----0-----0--|
B||-----1-----1-----3--|-----3-----0-----0--|-----0-----0-----1--|
G||-----2-----2-----2--|-----2-----0-----0--|-----0-----0-----2--|
D||--------2-----0-----|--------------0-----|--------------------|
A||--0-----------------|--0-----------------|--------2-----0-----|
E||--------------------|--------3-----------|--0-----------------|

B7 Em
si doi cai tropa - trop
-----0-----2-----2--|-----0-----0-----0--||
-----1-----0-----0--|-----0-----0-----0--||
-----2-----2-----2--|-----0-----0-----0--||
--2-----------1-----|--------------------||
--------2-----------|--------2-----------||
--------------------|--0-----------0-----||

Am D
Tropa-trop prin oraş
G Em
Şchiopătatul galop
Am B
Un ţăran şi doi cai,
Em
Tropa-trop

(2 ori)

Va lua-o încet către casă


Va mâncă printr-un parking ascuns
Şi din tropotul somn o să cadă
Şi aceasta-i va fi deajuns

Şi departe în sat este mama


Lunecând peste treburi grăbind
Un stigmat părintesc mă-presoară
Ca un plâns ce-a ajuns tropotind

Refren

Stau la geam în oraşul cel mare


N-am curajul măcar să cobor
Să-l invit înăuntru pe tata
Mi-e ruşine mai mult decât dor

Şi-ntr-o carte poştală târzie


C-o ştampilă de iad şi de rai
Voi afla c-a murit pe şosele
Lunecând sub copite de cai

Refren